999
GWCad git
  0
SECTION
  2
ENTITIES
  0
LWPOLYLINE
  5
1
  8
White
  6
CONTINUOUS
100
AcDbEntity
100
AcDbPolyline
 90
3
 70
0
 43
0.000000
 10
7.838000
 20
7.961000
 10
24.319000
 20
7.860000
 10
27.733000
 20
7.595000
  0
ARC
  5
2
  8
White
  6
CONTINUOUS
100
AcDbCircle
 39
0.000000
 10
27.538000
 20
7.112485
 30
0.000000
 40
0.520428
100
AcDbArc
 50
-25.431100
 51
67.994760
  0
LWPOLYLINE
  5
3
  8
White
  6
CONTINUOUS
100
AcDbEntity
100
AcDbPolyline
 90
2
 70
0
 43
0.000000
 10
28.008000
 20
6.889000
 10
27.121000
 20
5.206000
  0
ARC
  5
4
  8
White
  6
CONTINUOUS
100
AcDbCircle
 39
0.000000
 10
26.325224
 20
5.635000
 30
0.000000
 40
0.904047
100
AcDbArc
 50
269.415426
 51
-28.328937
  0
LWPOLYLINE
  5
5
  8
White
  6
CONTINUOUS
100
AcDbEntity
100
AcDbPolyline
 90
2
 70
0
 43
0.000000
 10
26.316000
 20
4.731000
 10
7.971000
 20
4.819000
  0
ARC
  5
6
  8
White
  6
CONTINUOUS
100
AcDbCircle
 39
0.000000
 10
7.927838
 20
5.696000
 30
0.000000
 40
0.878061
100
AcDbArc
 50
189.571332
 51
-87.182451
  0
LWPOLYLINE
  5
7
  8
White
  6
CONTINUOUS
100
AcDbEntity
100
AcDbPolyline
 90
3
 70
0
 43
0.000000
 10
7.062000
 20
5.550000
 10
7.035000
 20
5.980000
 10
6.880000
 20
6.305000
  0
ARC
  5
8
  8
White
  6
CONTINUOUS
100
AcDbCircle
 39
0.000000
 10
7.293000
 20
6.790634
 30
0.000000
 40
0.637503
100
AcDbArc
 50
186.813696
 51
229.621016
  0
LWPOLYLINE
  5
9
  8
White
  6
CONTINUOUS
100
AcDbEntity
100
AcDbPolyline
 90
2
 70
0
 43
0.000000
 10
6.660000
 20
6.715000
 10
6.677000
 20
7.128000
  0
ARC
  5
A
  8
White
  6
CONTINUOUS
100
AcDbCircle
 39
0.000000
 10
6.589000
 20
7.339388
 30
0.000000
 40
0.228974
100
AcDbArc
 50
-67.398226
 51
68.209002
  0
LWPOLYLINE
  5
B
  8
White
  6
CONTINUOUS
100
AcDbEntity
100
AcDbPolyline
 90
2
 70
0
 43
0.000000
 10
6.674000
 20
7.552000
 10
6.673000
 20
7.628000
  0
ARC
  5
C
  8
White
  6
CONTINUOUS
100
AcDbCircle
 39
0.000000
 10
6.769000
 20
7.626511
 30
0.000000
 40
0.096012
100
AcDbArc
 50
95.978435
 51
179.111174
  0
LWPOLYLINE
  5
D
  8
White
  6
CONTINUOUS
100
AcDbEntity
100
AcDbPolyline
 90
2
 70
0
 43
0.000000
 10
6.759000
 20
7.722000
 10
7.838000
 20
7.961000
  0
LWPOLYLINE
  5
E
  8
White
  6
CONTINUOUS
100
AcDbEntity
100
AcDbPolyline
 90
2
 70
0
 43
0.000000
 10
7.682000
 20
7.566000
 10
8.068000
 20
7.566000
  0
ARC
  5
F
  8
White
  6
CONTINUOUS
100
AcDbCircle
 39
0.000000
 10
8.021295
 20
7.091000
 30
0.000000
 40
0.477291
100
AcDbArc
 50
7.948359
 51
84.384320
  0
ARC
  5
10
  8
White
  6
CONTINUOUS
100
AcDbCircle
 39
0.000000
 10
9.024000
 20
6.584000
 30
0.000000
 40
0.205156
100
AcDbArc
 50
87.765201
 51
447.765201
  0
LWPOLYLINE
  5
11
  8
White
  6
CONTINUOUS
100
AcDbEntity
100
AcDbPolyline
 90
2
 70
0
 43
0.000000
 10
10.435000
 20
7.388000
 10
11.684000
 20
7.368000
  0
ARC
  5
12
  8
White
  6
CONTINUOUS
100
AcDbCircle
 39
0.000000
 10
11.720000
 20
6.640000
 30
0.000000
 40
0.728890
100
AcDbArc
 50
267.168998
 51
92.831002
  0
LWPOLYLINE
  5
13
  8
White
  6
CONTINUOUS
100
AcDbEntity
100
AcDbPolyline
 90
2
 70
0
 43
0.000000
 10
11.684000
 20
5.912000
 10
10.238000
 20
5.932000
  0
ARC
  5
14
  8
White
  6
CONTINUOUS
100
AcDbCircle
 39
0.000000
 10
10.299000
 20
6.653929
 30
0.000000
 40
0.724502
100
AcDbArc
 50
88.022533
 51
265.170220
  0
LWPOLYLINE
  5
15
  8
White
  6
CONTINUOUS
100
AcDbEntity
100
AcDbPolyline
 90
2
 70
0
 43
0.000000
 10
10.324000
 20
7.378000
 10
10.435000
 20
7.388000
  0
ARC
  5
16
  8
White
  6
CONTINUOUS
100
AcDbCircle
 39
0.000000
 10
13.012000
 20
6.661000
 30
0.000000
 40
0.205039
100
AcDbArc
 50
88.887600
 51
88.882175
  0
ARC
  5
17
  8
White
  6
CONTINUOUS
100
AcDbCircle
 39
0.000000
 10
17.083000
 20
6.641000
 30
0.000000
 40
0.200022
100
AcDbArc
 50
89.140628
 51
449.140628
  0
ARC
  5
18
  8
White
  6
CONTINUOUS
100
AcDbCircle
 39
0.000000
 10
21.066000
 20
6.514000
 30
0.000000
 40
0.206051
100
AcDbArc
 50
81.948171
 51
81.909222
  0
ARC
  5
19
  8
White
  6
CONTINUOUS
100
AcDbCircle
 39
0.000000
 10
25.175000
 20
6.590000
 30
0.000000
 40
0.214149
100
AcDbArc
 50
87.859099
 51
447.859099
  0
LWPOLYLINE
  5
1A
  8
White
  6
CONTINUOUS
100
AcDbEntity
100
AcDbPolyline
 90
2
 70
0
 43
0.000000
 10
14.064000
 20
7.537000
 10
15.986000
 20
7.537000
  0
ARC
  5
1B
  8
White
  6
CONTINUOUS
100
AcDbCircle
 39
0.000000
 10
27.690000
 20
7.154000
 30
0.000000
 40
0.176071
100
AcDbArc
 50
91.627283
 51
451.627283
  0
ARC
  5
1C
  8
White
  6
CONTINUOUS
100
AcDbCircle
 39
0.000000
 10
15.749000
 20
6.793898
 30
0.000000
 40
0.779980
100
AcDbArc
 50
-74.304807
 51
72.310778
  0
LWPOLYLINE
  5
1D
  8
White
  6
CONTINUOUS
100
AcDbEntity
100
AcDbPolyline
 90
2
 70
0
 43
0.000000
 10
15.960000
 20
6.043000
 10
14.060000
 20
6.043000
  0
ARC
  5
1E
  8
White
  6
CONTINUOUS
100
AcDbCircle
 39
0.000000
 10
14.330000
 20
6.789282
 30
0.000000
 40
0.793623
100
AcDbArc
 50
109.582981
 51
250.110215
  0
LWPOLYLINE
  5
1F
  8
White
  6
CONTINUOUS
100
AcDbEntity
100
AcDbPolyline
 90
2
 70
0
 43
0.000000
 10
18.329000
 20
7.313000
 10
19.884000
 20
7.309000
  0
ARC
  5
20
  8
White
  6
CONTINUOUS
100
AcDbCircle
 39
0.000000
 10
19.830000
 20
6.597281
 30
0.000000
 40
0.713765
100
AcDbArc
 50
-86.304898
 51
85.661132
  0
LWPOLYLINE
  5
21
  8
White
  6
CONTINUOUS
100
AcDbEntity
100
AcDbPolyline
 90
2
 70
0
 43
0.000000
 10
19.876000
 20
5.885000
 10
18.333000
 20
5.889000
  0
ARC
  5
22
  8
White
  6
CONTINUOUS
100
AcDbCircle
 39
0.000000
 10
18.367000
 20
6.601101
 30
0.000000
 40
0.712912
100
AcDbArc
 50
93.055455
 51
267.266430
  0
LWPOLYLINE
  5
23
  8
White
  6
CONTINUOUS
100
AcDbEntity
100
AcDbPolyline
 90
2
 70
0
 43
0.000000
 10
22.196000
 20
7.469000
 10
24.099000
 20
7.454000
  0
ARC
  5
24
  8
White
  6
CONTINUOUS
100
AcDbCircle
 39
0.000000
 10
24.000000
 20
6.721907
 30
0.000000
 40
0.738756
100
AcDbArc
 50
-81.123020
 51
82.298679
  0
LWPOLYLINE
  5
25
  8
White
  6
CONTINUOUS
100
AcDbEntity
100
AcDbPolyline
 90
2
 70
0
 43
0.000000
 10
24.114000
 20
5.992000
 10
22.187000
 20
5.992000
  0
ARC
  5
26
  8
White
  6
CONTINUOUS
100
AcDbCircle
 39
0.000000
 10
22.312000
 20
6.729766
 30
0.000000
 40
0.748280
100
AcDbArc
 50
98.918080
 51
260.383672
  0
ARC
  5
27
  8
White
  6
CONTINUOUS
100
AcDbCircle
 39
0.000000
 10
26.789452
 20
6.925000
 30
0.000000
 40
0.361993
100
AcDbArc
 50
-6.662715
 51
97.372691
  0
LWPOLYLINE
  5
28
  8
White
  6
CONTINUOUS
100
AcDbEntity
100
AcDbPolyline
 90
2
 70
0
 43
0.000000
 10
27.149000
 20
6.883000
 10
27.160000
 20
6.245000
  0
ARC
  5
29
  8
White
  6
CONTINUOUS
100
AcDbCircle
 39
0.000000
 10
26.775000
 20
6.217914
 30
0.000000
 40
0.385952
100
AcDbArc
 50
-79.852207
 51
4.024313
  0
LWPOLYLINE
  5
2A
  8
White
  6
CONTINUOUS
100
AcDbEntity
100
AcDbPolyline
 90
2
 70
0
 43
0.000000
 10
26.843000
 20
5.838000
 10
26.484000
 20
5.807000
  0
ARC
  5
2B
  8
White
  6
CONTINUOUS
100
AcDbCircle
 39
0.000000
 10
26.453000
 20
6.548021
 30
0.000000
 40
0.741669
100
AcDbArc
 50
92.472846
 51
-87.604476
  0
LWPOLYLINE
  5
2C
  8
White
  6
CONTINUOUS
100
AcDbEntity
100
AcDbPolyline
 90
2
 70
0
 43
0.000000
 10
26.421000
 20
7.289000
 10
26.743000
 20
7.284000
  0
LWPOLYLINE
  5
2D
  8
White
  6
CONTINUOUS
100
AcDbEntity
100
AcDbPolyline
 90
2
 70
0
 43
0.000000
 10
8.494000
 20
7.157000
 10
8.514000
 20
6.590000
  0
ARC
  5
2E
  8
White
  6
CONTINUOUS
100
AcDbCircle
 39
0.000000
 10
7.976000
 20
6.596087
 30
0.000000
 40
0.538034
100
AcDbArc
 50
-70.793412
 51
-0.648187
  0
LWPOLYLINE
  5
2F
  8
White
  6
CONTINUOUS
100
AcDbEntity
100
AcDbPolyline
 90
2
 70
0
 43
0.000000
 10
8.153000
 20
6.088000
 10
7.760000
 20
6.068000
  0
ARC
  5
30
  8
White
  6
CONTINUOUS
100
AcDbCircle
 39
0.000000
 10
7.791455
 20
6.665000
 30
0.000000
 40
0.597828
100
AcDbArc
 50
191.677300
 51
266.983976
  0
LWPOLYLINE
  5
31
  8
White
  6
CONTINUOUS
100
AcDbEntity
100
AcDbPolyline
 90
2
 70
0
 43
0.000000
 10
7.206000
 20
6.544000
 10
7.213000
 20
7.032000
  0
ARC
  5
32
  8
White
  6
CONTINUOUS
100
AcDbCircle
 39
0.000000
 10
7.805000
 20
6.985016
 30
0.000000
 40
0.593862
100
AcDbArc
 50
101.953571
 51
175.462232
  0
ENDSEC
  0
EOF
