0     
SECTION 
2   
ENTITIES
0 
POLYLINE
8     
PlasmaCutterPath
70  
0  
6 
Continuous
40    
0.1
41 
0.1   
43
0.1
0
VERTEX
10    
13.697
20  
14.385
0
VERTEX
10    
13.689
20  
14.388
0
VERTEX
10    
13.705
20  
14.389
0
VERTEX
10    
13.722
20  
14.389
0
VERTEX
10    
13.736
20  
14.389
0
VERTEX
10    
13.762
20  
14.389
0
VERTEX
10    
13.823
20  
14.389
0
VERTEX
10    
13.871
20  
14.389
0
VERTEX
10    
13.918
20  
14.389
0
VERTEX
10    
13.955
20  
14.389
0
VERTEX
10    
13.993
20  
14.389
0
VERTEX
10    
14.04
20  
14.385
0
VERTEX
10    
14.092
20  
14.377
0
VERTEX
10    
14.165
20  
14.378
0
VERTEX
10    
14.256
20  
14.378
0
VERTEX
10    
14.325
20  
14.378
0
VERTEX
10    
14.384
20  
14.378
0
VERTEX
10    
14.443
20  
14.378
0
VERTEX
10    
14.511
20  
14.374
0
VERTEX
10    
14.601
20  
14.366
0
VERTEX
10    
14.687
20  
14.368
0
VERTEX
10    
14.752
20  
14.368
0
VERTEX
10    
14.813
20  
14.368
0
VERTEX
10    
14.887
20  
14.368
0
VERTEX
10    
14.987
20  
14.368
0
VERTEX
10    
15.092
20  
14.368
0
VERTEX
10    
15.16
20  
14.368
0
VERTEX
10    
15.232
20  
14.363
0
VERTEX
10    
15.314
20  
14.355
0
VERTEX
10    
15.422
20  
14.357
0
VERTEX
10    
15.531
20  
14.357
0
VERTEX
10    
15.596
20  
14.357
0
VERTEX
10    
15.676
20  
14.357
0
VERTEX
10    
15.78
20  
14.357
0
VERTEX
10    
15.909
20  
14.353
0
VERTEX
10    
15.989
20  
14.344
0
VERTEX
10    
16.069
20  
14.345
0
VERTEX
10    
16.178
20  
14.345
0
VERTEX
10    
16.312
20  
14.345
0
VERTEX
10    
16.387
20  
14.345
0
VERTEX
10    
16.484
20  
14.341
0
VERTEX
10    
16.605
20  
14.333
0
VERTEX
10    
16.737
20  
14.335
0
VERTEX
10    
16.828
20  
14.335
0
VERTEX
10    
16.939
20  
14.335
0
VERTEX
10    
17.076
20  
14.335
0
VERTEX
10    
17.19
20  
14.335
0
VERTEX
10    
17.297
20  
14.331
0
VERTEX
10    
17.44
20  
14.322
0
VERTEX
10    
17.582
20  
14.324
0
VERTEX
10    
17.692
20  
14.324
0
VERTEX
10    
17.846
20  
14.324
0
VERTEX
10    
17.992
20  
14.324
0
VERTEX
10    
18.107
20  
14.324
0
VERTEX
10    
18.264
20  
14.324
0
VERTEX
10    
18.404
20  
14.324
0
VERTEX
10    
18.535
20  
14.324
0
VERTEX
10    
18.715
20  
14.322
0
VERTEX
10    
18.857
20  
14.318
0
VERTEX
10    
19.016
20  
14.319
0
VERTEX
10    
19.18
20  
14.319
0
VERTEX
10    
19.312
20  
14.319
0
VERTEX
10    
19.474
20  
14.319
0
VERTEX
10    
19.617
20  
14.319
0
VERTEX
10    
19.749
20  
14.319
0
VERTEX
10    
19.923
20  
14.319
0
VERTEX
10    
20.051
20  
14.319
0
VERTEX
10    
20.206
20  
14.319
0
VERTEX
10    
20.364
20  
14.319
0
VERTEX
10    
20.48
20  
14.319
0
VERTEX
10    
20.632
20  
14.319
0
VERTEX
10    
20.784
20  
14.319
0
VERTEX
10    
20.889
20  
14.323
0
VERTEX
10    
21.027
20  
14.332
0
VERTEX
10    
21.157
20  
14.331
0
VERTEX
10    
21.255
20  
14.331
0
VERTEX
10    
21.389
20  
14.331
0
VERTEX
10    
21.529
20  
14.331
0
VERTEX
10    
21.622
20  
14.331
0
VERTEX
10    
21.724
20  
14.331
0
VERTEX
10    
21.848
20  
14.331
0
VERTEX
10    
21.956
20  
14.331
0
VERTEX
10    
22.033
20  
14.331
0
VERTEX
10    
22.135
20  
14.331
0
VERTEX
10    
22.26
20  
14.331
0
VERTEX
10    
22.364
20  
14.331
0
VERTEX
10    
22.441
20  
14.331
0
VERTEX
10    
22.543
20  
14.329
0
VERTEX
10    
22.667
20  
14.327
0
VERTEX
10    
22.771
20  
14.328
0
VERTEX
10    
22.854
20  
14.328
0
VERTEX
10    
22.967
20  
14.328
0
VERTEX
10    
23.104
20  
14.328
0
VERTEX
10    
23.189
20  
14.328
0
VERTEX
10    
23.285
20  
14.328
0
VERTEX
10    
23.401
20  
14.328
0
VERTEX
10    
23.526
20  
14.328
0
VERTEX
10    
23.607
20  
14.328
0
VERTEX
10    
23.713
20  
14.328
0
VERTEX
10    
23.852
20  
14.328
0
VERTEX
10    
23.968
20  
14.328
0
VERTEX
10    
24.053
20  
14.328
0
VERTEX
10    
24.174
20  
14.33
0
VERTEX
10    
24.301
20  
14.33
0
VERTEX
10    
24.387
20  
14.33
0
VERTEX
10    
24.471
20  
14.33
0
VERTEX
10    
24.586
20  
14.33
0
VERTEX
10    
24.719
20  
14.33
0
VERTEX
10    
24.805
20  
14.33
0
VERTEX
10    
24.913
20  
14.33
0
VERTEX
10    
25.038
20  
14.33
0
VERTEX
10    
25.155
20  
14.331
0
VERTEX
10    
25.249
20  
14.334
0
VERTEX
10    
25.358
20  
14.334
0
VERTEX
10    
25.481
20  
14.334
0
VERTEX
10    
25.603
20  
14.334
0
VERTEX
10    
25.701
20  
14.334
0
VERTEX
10    
25.834
20  
14.334
0
VERTEX
10    
25.981
20  
14.334
0
VERTEX
10    
26.048
20  
14.334
0
VERTEX
10    
26.151
20  
14.334
0
VERTEX
10    
26.293
20  
14.334
0
VERTEX
10    
26.37
20  
14.332
0
VERTEX
10    
26.457
20  
14.327
0
VERTEX
10    
26.55
20  
14.328
0
VERTEX
10    
26.664
20  
14.328
0
VERTEX
10    
26.742
20  
14.328
0
VERTEX
10    
26.804
20  
14.328
0
VERTEX
10    
26.869
20  
14.328
0
VERTEX
10    
26.957
20  
14.328
0
VERTEX
10    
27.045
20  
14.328
0
VERTEX
10    
27.119
20  
14.328
0
VERTEX
10    
27.15
20  
14.328
0
VERTEX
10    
27.189
20  
14.328
0
VERTEX
10    
27.24
20  
14.328
0
VERTEX
10    
27.275
20  
14.328
0
VERTEX
10    
27.291
20  
14.328
0
VERTEX
10    
27.308
20  
14.328
0
VERTEX
10    
27.343
20  
14.328
0
VERTEX
10    
27.404
20  
14.328
0
VERTEX
10    
27.462
20  
14.328
0
VERTEX
10    
27.488
20  
14.327
0
VERTEX
10    
27.506
20  
14.325
0
VERTEX
10    
27.53
20  
14.325
0
VERTEX
10    
27.564
20  
14.325
0
VERTEX
10    
27.614
20  
14.325
0
VERTEX
10    
27.666
20  
14.325
0
VERTEX
10    
27.723
20  
14.325
0
VERTEX
10    
27.821
20  
14.325
0
VERTEX
10    
27.904
20  
14.325
0
VERTEX
10    
27.96
20  
14.325
0
VERTEX
10    
28.028
20  
14.325
0
VERTEX
10    
28.09
20  
14.325
0
VERTEX
10    
28.193
20  
14.325
0
VERTEX
10    
28.307
20  
14.325
0
VERTEX
10    
28.384
20  
14.325
0
VERTEX
10    
28.463
20  
14.325
0
VERTEX
10    
28.575
20  
14.325
0
VERTEX
10    
28.709
20  
14.325
0
VERTEX
10    
28.798
20  
14.325
0
VERTEX
10    
28.892
20  
14.325
0
VERTEX
10    
29.026
20  
14.325
0
VERTEX
10    
29.165
20  
14.325
0
VERTEX
10    
29.246
20  
14.321
0
VERTEX
10    
29.352
20  
14.313
0
VERTEX
10    
29.478
20  
14.314
0
VERTEX
10    
29.589
20  
14.31
0
VERTEX
10    
29.686
20  
14.303
0
VERTEX
10    
29.805
20  
14.297
0
VERTEX
10    
29.936
20  
14.284
0
VERTEX
10    
30.008
20  
14.279
0
VERTEX
10    
30.07
20  
14.265
0
VERTEX
10    
30.146
20  
14.261
0
VERTEX
10    
30.238
20  
14.248
0
VERTEX
10    
30.299
20  
14.25
0
VERTEX
10    
30.332
20  
14.246
0
VERTEX
10    
30.355
20  
14.238
0
VERTEX
10    
30.37
20  
14.239
0
VERTEX
10    
30.382
20  
14.239
0
VERTEX
10    
30.393
20  
14.239
0
VERTEX
10    
30.409
20  
14.246
0
VERTEX
10    
30.423
20  
14.259
0
VERTEX
10    
30.44
20  
14.262
0
VERTEX
10    
30.452
20  
14.273
0
VERTEX
10    
30.464
20  
14.272
0
VERTEX
10    
30.48
20  
14.277
0
VERTEX
10    
30.502
20  
14.288
0
VERTEX
10    
30.524
20  
14.286
0
VERTEX
10    
30.545
20  
14.29
0
VERTEX
10    
30.562
20  
14.299
0
VERTEX
10    
30.574
20  
14.298
0
VERTEX
10    
30.588
20  
14.302
0
VERTEX
10    
30.609
20  
14.311
0
VERTEX
10    
30.64
20  
14.315
0
VERTEX
10    
30.676
20  
14.325
0
VERTEX
10    
30.702
20  
14.324
0
VERTEX
10    
30.722
20  
14.324
0
VERTEX
10    
30.735
20  
14.324
0
VERTEX
10    
30.746
20  
14.324
0
VERTEX
10    
30.757
20  
14.324
0
VERTEX
10    
30.772
20  
14.324
0
VERTEX
10    
30.79
20  
14.324
0
VERTEX
10    
30.798
20  
14.324
0
VERTEX
10    
30.818
20  
14.326
0
VERTEX
10    
30.833
20  
14.326
0
VERTEX
10    
30.863
20  
14.326
0
VERTEX
10    
30.905
20  
14.326
0
VERTEX
10    
30.953
20  
14.322
0
VERTEX
10    
30.992
20  
14.314
0
VERTEX
10    
30.984
20  
14.315
0
VERTEX
10    
30.996
20  
14.315
0
VERTEX
10    
30.996
20  
14.307
0
VERTEX
10    
30.996
20  
14.282
0
VERTEX
10    
30.996
20  
14.247
0
VERTEX
10    
30.991
20  
14.192
0
VERTEX
10    
30.984
20  
14.122
0
VERTEX
10    
30.984
20  
14.088
0
VERTEX
10    
30.984
20  
14.063
0
VERTEX
10    
30.984
20  
14.04
0
VERTEX
10    
30.984
20  
14.016
0
VERTEX
10    
30.984
20  
13.99
0
VERTEX
10    
30.984
20  
13.966
0
VERTEX
10    
30.984
20  
13.938
0
VERTEX
10    
30.984
20  
13.911
0
VERTEX
10    
30.984
20  
13.878
0
VERTEX
10    
30.99
20  
13.837
0
VERTEX
10    
30.99
20  
13.784
0
VERTEX
10    
30.99
20  
13.737
0
VERTEX
10    
30.99
20  
13.695
0
VERTEX
10    
30.99
20  
13.657
0
VERTEX
10    
30.99
20  
13.625
0
VERTEX
10    
30.99
20  
13.592
0
VERTEX
10    
30.99
20  
13.556
0
VERTEX
10    
30.99
20  
13.51
0
VERTEX
10    
30.99
20  
13.455
0
VERTEX
10    
30.99
20  
13.382
0
VERTEX
10    
30.99
20  
13.328
0
VERTEX
10    
30.99
20  
13.281
0
VERTEX
10    
30.99
20  
13.24
0
VERTEX
10    
30.998
20  
13.195
0
VERTEX
10    
30.998
20  
13.144
0
VERTEX
10    
30.998
20  
13.082
0
VERTEX
10    
30.998
20  
12.997
0
VERTEX
10    
30.998
20  
12.927
0
VERTEX
10    
30.998
20  
12.837
0
VERTEX
10    
30.998
20  
12.79
0
VERTEX
10    
30.998
20  
12.713
0
VERTEX
10    
30.998
20  
12.625
0
VERTEX
10    
30.998
20  
12.536
0
VERTEX
10    
30.998
20  
12.468
0
VERTEX
10    
30.998
20  
12.407
0
VERTEX
10    
30.998
20  
12.347
0
VERTEX
10    
30.998
20  
12.276
0
VERTEX
10    
30.998
20  
12.175
0
VERTEX
10    
31.006
20  
12.096
0
VERTEX
10    
31.006
20  
12.027
0
VERTEX
10    
31.006
20  
11.961
0
VERTEX
10    
31.006
20  
11.883
0
VERTEX
10    
31.006
20  
11.766
0
VERTEX
10    
31.006
20  
11.68
0
VERTEX
10    
31.006
20  
11.606
0
VERTEX
10    
31.006
20  
11.534
0
VERTEX
10    
31.006
20  
11.446
0
VERTEX
10    
31.006
20  
11.323
0
VERTEX
10    
31.006
20  
11.243
0
VERTEX
10    
31.006
20  
11.164
0
VERTEX
10    
31.006
20  
11.077
0
VERTEX
10    
31.006
20  
10.945
0
VERTEX
10    
31.006
20  
10.853
0
VERTEX
10    
30.994
20  
10.714
0
VERTEX
10    
30.995
20  
10.604
0
VERTEX
10    
30.995
20  
10.445
0
VERTEX
10    
30.995
20  
10.356
0
VERTEX
10    
30.985
20  
10.248
0
VERTEX
10    
30.985
20  
10.111
0
VERTEX
10    
30.985
20  
10.021
0
VERTEX
10    
30.985
20  
9.926
0
VERTEX
10    
30.985
20  
9.799
0
VERTEX
10    
30.985
20  
9.678
0
VERTEX
10    
30.985
20  
9.586
0
VERTEX
10    
30.985
20  
9.5
0
VERTEX
10    
30.985
20  
9.362
0
VERTEX
10    
30.985
20  
9.267
0
VERTEX
10    
30.985
20  
9.182
0
VERTEX
10    
30.985
20  
9.105
0
VERTEX
10    
30.985
20  
8.981
0
VERTEX
10    
30.985
20  
8.881
0
VERTEX
10    
30.985
20  
8.802
0
VERTEX
10    
30.985
20  
8.718
0
VERTEX
10    
30.985
20  
8.602
0
VERTEX
10    
30.985
20  
8.494
0
VERTEX
10    
30.985
20  
8.412
0
VERTEX
10    
30.985
20  
8.323
0
VERTEX
10    
30.985
20  
8.195
0
VERTEX
10    
30.985
20  
8.085
0
VERTEX
10    
30.985
20  
7.998
0
VERTEX
10    
30.985
20  
7.91
0
VERTEX
10    
30.985
20  
7.775
0
VERTEX
10    
30.985
20  
7.667
0
VERTEX
10    
30.985
20  
7.581
0
VERTEX
10    
30.985
20  
7.497
0
VERTEX
10    
30.985
20  
7.376
0
VERTEX
10    
30.985
20  
7.268
0
VERTEX
10    
30.985
20  
7.189
0
VERTEX
10    
30.985
20  
7.112
0
VERTEX
10    
30.985
20  
7.014
0
VERTEX
10    
30.985
20  
6.899
0
VERTEX
10    
30.985
20  
6.828
0
VERTEX
10    
30.985
20  
6.753
0
VERTEX
10    
30.985
20  
6.677
0
VERTEX
10    
30.985
20  
6.555
0
VERTEX
10    
30.985
20  
6.468
0
VERTEX
10    
30.985
20  
6.391
0
VERTEX
10    
30.985
20  
6.315
0
VERTEX
10    
30.985
20  
6.204
0
VERTEX
10    
30.985
20  
6.096
0
VERTEX
10    
30.973
20  
6.018
0
VERTEX
10    
30.973
20  
5.934
0
VERTEX
10    
30.973
20  
5.83
0
VERTEX
10    
30.973
20  
5.697
0
VERTEX
10    
30.973
20  
5.612
0
VERTEX
10    
30.973
20  
5.517
0
VERTEX
10    
30.973
20  
5.393
0
VERTEX
10    
30.96
20  
5.268
0
VERTEX
10    
30.96
20  
5.176
0
VERTEX
10    
30.96
20  
5.083
0
VERTEX
10    
30.96
20  
4.947
0
VERTEX
10    
30.96
20  
4.847
0
VERTEX
10    
30.95
20  
4.758
0
VERTEX
10    
30.95
20  
4.661
0
VERTEX
10    
30.95
20  
4.524
0
VERTEX
10    
30.95
20  
4.438
0
VERTEX
10    
30.95
20  
4.356
0
VERTEX
10    
30.95
20  
4.268
0
VERTEX
10    
30.938
20  
4.141
0
VERTEX
10    
30.938
20  
4.064
0
VERTEX
10    
30.938
20  
3.989
0
VERTEX
10    
30.938
20  
3.922
0
VERTEX
10    
30.938
20  
3.83
0
VERTEX
10    
30.926
20  
3.721
0
VERTEX
10    
30.926
20  
3.649
0
VERTEX
10    
30.926
20  
3.584
0
VERTEX
10    
30.926
20  
3.522
0
VERTEX
10    
30.926
20  
3.435
0
VERTEX
10    
30.916
20  
3.33
0
VERTEX
10    
30.916
20  
3.258
0
VERTEX
10    
30.916
20  
3.193
0
VERTEX
10    
30.916
20  
3.135
0
VERTEX
10    
30.916
20  
3.054
0
VERTEX
10    
30.916
20  
2.951
0
VERTEX
10    
30.905
20  
2.875
0
VERTEX
10    
30.905
20  
2.81
0
VERTEX
10    
30.905
20  
2.746
0
VERTEX
10    
30.905
20  
2.673
0
VERTEX
10    
30.905
20  
2.564
0
VERTEX
10    
30.905
20  
2.484
0
VERTEX
10    
30.905
20  
2.423
0
VERTEX
10    
30.905
20  
2.372
0
VERTEX
10    
30.893
20  
2.318
0
VERTEX
10    
30.893
20  
2.252
0
VERTEX
10    
30.893
20  
2.173
0
VERTEX
10    
30.893
20  
2.115
0
VERTEX
10    
30.893
20  
2.066
0
VERTEX
10    
30.893
20  
2.028
0
VERTEX
10    
30.893
20  
1.989
0
VERTEX
10    
30.882
20  
1.955
0
VERTEX
10    
30.882
20  
1.915
0
VERTEX
10    
30.882
20  
1.87
0
VERTEX
10    
30.882
20  
1.821
0
VERTEX
10    
30.882
20  
1.761
0
VERTEX
10    
30.882
20  
1.717
0
VERTEX
10    
30.882
20  
1.678
0
VERTEX
10    
30.882
20  
1.651
0
VERTEX
10    
30.882
20  
1.627
0
VERTEX
10    
30.882
20  
1.607
0
VERTEX
10    
30.882
20  
1.589
0
VERTEX
10    
30.882
20  
1.571
0
VERTEX
10    
30.873
20  
1.552
0
VERTEX
10    
30.873
20  
1.534
0
VERTEX
10    
30.873
20  
1.52
0
VERTEX
10    
30.873
20  
1.505
0
VERTEX
10    
30.873
20  
1.489
0
VERTEX
10    
30.873
20  
1.468
0
VERTEX
10    
30.873
20  
1.437
0
VERTEX
10    
30.873
20  
1.402
0
VERTEX
10    
30.873
20  
1.37
0
VERTEX
10    
30.873
20  
1.338
0
VERTEX
10    
30.873
20  
1.316
0
VERTEX
10    
30.873
20  
1.294
0
VERTEX
10    
30.868
20  
1.274
0
VERTEX
10    
30.868
20  
1.257
0
VERTEX
10    
30.868
20  
1.244
0
VERTEX
10    
30.868
20  
1.231
0
VERTEX
10    
30.868
20  
1.218
0
VERTEX
10    
30.868
20  
1.205
0
VERTEX
10    
30.868
20  
1.192
0
VERTEX
10    
30.868
20  
1.18
0
VERTEX
10    
30.868
20  
1.164
0
VERTEX
10    
30.868
20  
1.148
0
VERTEX
10    
30.86
20  
1.128
0
VERTEX
10    
30.86
20  
1.105
0
VERTEX
10    
30.86
20  
1.08
0
VERTEX
10    
30.86
20  
1.051
0
VERTEX
10    
30.86
20  
1.02
0
VERTEX
10    
30.86
20  
0.991
0
VERTEX
10    
30.86
20  
0.968
0
VERTEX
10    
30.86
20  
0.955
0
VERTEX
10    
30.85
20  
0.945
0
VERTEX
10    
30.839
20  
0.945
0
VERTEX
10    
30.828
20  
0.945
0
VERTEX
10    
30.815
20  
0.945
0
VERTEX
10    
30.802
20  
0.945
0
VERTEX
10    
30.769
20  
0.96
0
VERTEX
10    
30.737
20  
0.959
0
VERTEX
10    
30.691
20  
0.959
0
VERTEX
10    
30.631
20  
0.963
0
VERTEX
10    
30.562
20  
0.971
0
VERTEX
10    
30.506
20  
0.969
0
VERTEX
10    
30.456
20  
0.969
0
VERTEX
10    
30.407
20  
0.969
0
VERTEX
10    
30.359
20  
0.969
0
VERTEX
10    
30.307
20  
0.969
0
VERTEX
10    
30.246
20  
0.969
0
VERTEX
10    
30.175
20  
0.969
0
VERTEX
10    
30.105
20  
0.969
0
VERTEX
10    
30.049
20  
0.972
0
VERTEX
10    
29.99
20  
0.976
0
VERTEX
10    
29.918
20  
0.976
0
VERTEX
10    
29.829
20  
0.976
0
VERTEX
10    
29.73
20  
0.976
0
VERTEX
10    
29.646
20  
0.976
0
VERTEX
10    
29.572
20  
0.976
0
VERTEX
10    
29.498
20  
0.976
0
VERTEX
10    
29.407
20  
0.976
0
VERTEX
10    
29.286
20  
0.976
0
VERTEX
10    
29.215
20  
0.979
0
VERTEX
10    
29.163
20  
0.984
0
VERTEX
10    
29.114
20  
0.983
0
VERTEX
10    
29.04
20  
0.983
0
VERTEX
10    
28.956
20  
0.983
0
VERTEX
10    
28.895
20  
0.983
0
VERTEX
10    
28.844
20  
0.983
0
VERTEX
10    
28.796
20  
0.983
0
VERTEX
10    
28.75
20  
0.983
0
VERTEX
10    
28.705
20  
0.983
0
VERTEX
10    
28.67
20  
0.983
0
VERTEX
10    
28.638
20  
0.983
0
VERTEX
10    
28.604
20  
0.983
0
VERTEX
10    
28.555
20  
0.983
0
VERTEX
10    
28.496
20  
0.983
0
VERTEX
10    
28.455
20  
0.983
0
VERTEX
10    
28.423
20  
0.983
0
VERTEX
10    
28.396
20  
0.985
0
VERTEX
10    
28.368
20  
0.988
0
VERTEX
10    
28.333
20  
0.987
0
VERTEX
10    
28.275
20  
0.987
0
VERTEX
10    
28.202
20  
0.987
0
VERTEX
10    
28.12
20  
0.987
0
VERTEX
10    
28.071
20  
0.987
0
VERTEX
10    
28.005
20  
0.987
0
VERTEX
10    
27.933
20  
0.987
0
VERTEX
10    
27.875
20  
0.987
0
VERTEX
10    
27.752
20  
0.994
0
VERTEX
10    
27.608
20  
1.004
0
VERTEX
10    
27.479
20  
1.004
0
VERTEX
10    
27.41
20  
1.004
0
VERTEX
10    
27.302
20  
1.004
0
VERTEX
10    
27.256
20  
1.004
0
VERTEX
10    
27.206
20  
1.004
0
VERTEX
10    
27.175
20  
1.004
0
VERTEX
10    
27.166
20  
1.004
0
VERTEX
10    
27.154
20  
1.005
0
VERTEX
10    
27.141
20  
1.005
0
VERTEX
10    
27.119
20  
1.005
0
VERTEX
10    
27.087
20  
1.005
0
VERTEX
10    
27.039
20  
1.005
0
VERTEX
10    
26.955
20  
1.005
0
VERTEX
10    
26.894
20  
1.005
0
VERTEX
10    
26.831
20  
1.005
0
VERTEX
10    
26.779
20  
1.005
0
VERTEX
10    
26.715
20  
1.005
0
VERTEX
10    
26.629
20  
1.005
0
VERTEX
10    
26.52
20  
1.005
0
VERTEX
10    
26.438
20  
1.005
0
VERTEX
10    
26.359
20  
1.009
0
VERTEX
10    
26.273
20  
1.017
0
VERTEX
10    
26.157
20  
1.015
0
VERTEX
10    
26.049
20  
1.015
0
VERTEX
10    
25.967
20  
1.015
0
VERTEX
10    
25.86
20  
1.015
0
VERTEX
10    
25.721
20  
1.015
0
VERTEX
10    
25.588
20  
1.015
0
VERTEX
10    
25.485
20  
1.015
0
VERTEX
10    
25.353
20  
1.015
0
VERTEX
10    
25.209
20  
1.015
0
VERTEX
10    
25.113
20  
1.015
0
VERTEX
10    
24.97
20  
1.015
0
VERTEX
10    
24.818
20  
1.015
0
VERTEX
10    
24.706
20  
1.018
0
VERTEX
10    
24.561
20  
1.023
0
VERTEX
10    
24.411
20  
1.022
0
VERTEX
10    
24.287
20  
1.022
0
VERTEX
10    
24.123
20  
1.026
0
VERTEX
10    
23.96
20  
1.033
0
VERTEX
10    
23.827
20  
1.032
0
VERTEX
10    
23.656
20  
1.032
0
VERTEX
10    
23.531
20  
1.032
0
VERTEX
10    
23.385
20  
1.032
0
VERTEX
10    
23.209
20  
1.032
0
VERTEX
10    
23.089
20  
1.032
0
VERTEX
10    
22.931
20  
1.032
0
VERTEX
10    
22.759
20  
1.032
0
VERTEX
10    
22.623
20  
1.032
0
VERTEX
10    
22.458
20  
1.032
0
VERTEX
10    
22.34
20  
1.032
0
VERTEX
10    
22.212
20  
1.032
0
VERTEX
10    
22.062
20  
1.032
0
VERTEX
10    
21.942
20  
1.032
0
VERTEX
10    
21.82
20  
1.037
0
VERTEX
10    
21.67
20  
1.045
0
VERTEX
10    
21.558
20  
1.044
0
VERTEX
10    
21.435
20  
1.044
0
VERTEX
10    
21.291
20  
1.044
0
VERTEX
10    
21.169
20  
1.044
0
VERTEX
10    
21.061
20  
1.044
0
VERTEX
10    
20.924
20  
1.044
0
VERTEX
10    
20.795
20  
1.044
0
VERTEX
10    
20.684
20  
1.048
0
VERTEX
10    
20.546
20  
1.057
0
VERTEX
10    
20.405
20  
1.056
0
VERTEX
10    
20.302
20  
1.056
0
VERTEX
10    
20.163
20  
1.056
0
VERTEX
10    
20.03
20  
1.056
0
VERTEX
10    
19.919
20  
1.056
0
VERTEX
10    
19.785
20  
1.06
0
VERTEX
10    
19.628
20  
1.068
0
VERTEX
10    
19.523
20  
1.067
0
VERTEX
10    
19.379
20  
1.067
0
VERTEX
10    
19.217
20  
1.067
0
VERTEX
10    
19.104
20  
1.067
0
VERTEX
10    
18.95
20  
1.072
0
VERTEX
10    
18.779
20  
1.081
0
VERTEX
10    
18.662
20  
1.079
0
VERTEX
10    
18.496
20  
1.079
0
VERTEX
10    
18.347
20  
1.079
0
VERTEX
10    
18.21
20  
1.079
0
VERTEX
10    
18.053
20  
1.079
0
VERTEX
10    
17.932
20  
1.079
0
VERTEX
10    
17.789
20  
1.079
0
VERTEX
10    
17.625
20  
1.079
0
VERTEX
10    
17.512
20  
1.079
0
VERTEX
10    
17.36
20  
1.079
0
VERTEX
10    
17.202
20  
1.079
0
VERTEX
10    
17.1
20  
1.084
0
VERTEX
10    
16.965
20  
1.094
0
VERTEX
10    
16.816
20  
1.093
0
VERTEX
10    
16.719
20  
1.093
0
VERTEX
10    
16.583
20  
1.093
0
VERTEX
10    
16.432
20  
1.093
0
VERTEX
10    
16.336
20  
1.097
0
VERTEX
10    
16.208
20  
1.105
0
VERTEX
10    
16.063
20  
1.104
0
VERTEX
10    
15.954
20  
1.104
0
VERTEX
10    
15.846
20  
1.104
0
VERTEX
10    
15.717
20  
1.108
0
VERTEX
10    
15.584
20  
1.116
0
VERTEX
10    
15.489
20  
1.115
0
VERTEX
10    
15.356
20  
1.115
0
VERTEX
10    
15.216
20  
1.115
0
VERTEX
10    
15.13
20  
1.115
0
VERTEX
10    
15.018
20  
1.115
0
VERTEX
10    
14.888
20  
1.115
0
VERTEX
10    
14.801
20  
1.115
0
VERTEX
10    
14.739
20  
1.115
0
VERTEX
10    
14.656
20  
1.115
0
VERTEX
10    
14.56
20  
1.115
0
VERTEX
10    
14.466
20  
1.115
0
VERTEX
10    
14.411
20  
1.115
0
VERTEX
10    
14.365
20  
1.115
0
VERTEX
10    
14.323
20  
1.115
0
VERTEX
10    
14.274
20  
1.115
0
VERTEX
10    
14.221
20  
1.115
0
VERTEX
10    
14.171
20  
1.119
0
VERTEX
10    
14.126
20  
1.125
0
VERTEX
10    
14.082
20  
1.124
0
VERTEX
10    
14.053
20  
1.124
0
VERTEX
10    
14.023
20  
1.124
0
VERTEX
10    
13.999
20  
1.124
0
VERTEX
10    
13.981
20  
1.124
0
VERTEX
10    
13.957
20  
1.124
0
VERTEX
10    
13.93
20  
1.124
0
VERTEX
10    
13.899
20  
1.124
0
VERTEX
10    
13.858
20  
1.124
0
VERTEX
10    
13.808
20  
1.124
0
VERTEX
10    
13.759
20  
1.124
0
VERTEX
10    
13.708
20  
1.124
0
VERTEX
10    
13.664
20  
1.126
0
VERTEX
10    
13.645
20  
1.129
0
VERTEX
10    
13.637
20  
1.129
0
VERTEX
10    
13.633
20  
1.137
0
VERTEX
10    
13.633
20  
1.148
0
VERTEX
10    
13.633
20  
1.163
0
VERTEX
10    
13.631
20  
1.174
0
VERTEX
10    
13.631
20  
1.192
0
VERTEX
10    
13.631
20  
1.215
0
VERTEX
10    
13.631
20  
1.249
0
VERTEX
10    
13.631
20  
1.304
0
VERTEX
10    
13.631
20  
1.413
0
VERTEX
10    
13.642
20  
1.498
0
VERTEX
10    
13.642
20  
1.555
0
VERTEX
10    
13.642
20  
1.602
0
VERTEX
10    
13.642
20  
1.654
0
VERTEX
10    
13.642
20  
1.708
0
VERTEX
10    
13.642
20  
1.766
0
VERTEX
10    
13.642
20  
1.82
0
VERTEX
10    
13.642
20  
1.86
0
VERTEX
10    
13.642
20  
1.907
0
VERTEX
10    
13.642
20  
1.946
0
VERTEX
10    
13.632
20  
1.978
0
VERTEX
10    
13.632
20  
2.017
0
VERTEX
10    
13.632
20  
2.062
0
VERTEX
10    
13.632
20  
2.118
0
VERTEX
10    
13.632
20  
2.186
0
VERTEX
10    
13.632
20  
2.258
0
VERTEX
10    
13.632
20  
2.311
0
VERTEX
10    
13.632
20  
2.36
0
VERTEX
10    
13.632
20  
2.4
0
VERTEX
10    
13.632
20  
2.45
0
VERTEX
10    
13.632
20  
2.511
0
VERTEX
10    
13.632
20  
2.587
0
VERTEX
10    
13.632
20  
2.671
0
VERTEX
10    
13.632
20  
2.735
0
VERTEX
10    
13.632
20  
2.796
0
VERTEX
10    
13.632
20  
2.857
0
VERTEX
10    
13.632
20  
2.925
0
VERTEX
10    
13.632
20  
3.034
0
VERTEX
10    
13.632
20  
3.109
0
VERTEX
10    
13.632
20  
3.177
0
VERTEX
10    
13.632
20  
3.236
0
VERTEX
10    
13.632
20  
3.294
0
VERTEX
10    
13.632
20  
3.38
0
VERTEX
10    
13.632
20  
3.476
0
VERTEX
10    
13.632
20  
3.543
0
VERTEX
10    
13.632
20  
3.604
0
VERTEX
10    
13.632
20  
3.665
0
VERTEX
10    
13.632
20  
3.739
0
VERTEX
10    
13.632
20  
3.836
0
VERTEX
10    
13.632
20  
3.911
0
VERTEX
10    
13.632
20  
3.972
0
VERTEX
10    
13.624
20  
4.028
0
VERTEX
10    
13.624
20  
4.099
0
VERTEX
10    
13.624
20  
4.243
0
VERTEX
10    
13.624
20  
4.337
0
VERTEX
10    
13.624
20  
4.409
0
VERTEX
10    
13.624
20  
4.48
0
VERTEX
10    
13.624
20  
4.596
0
VERTEX
10    
13.624
20  
4.714
0
VERTEX
10    
13.624
20  
4.802
0
VERTEX
10    
13.624
20  
4.894
0
VERTEX
10    
13.624
20  
5.021
0
VERTEX
10    
13.626
20  
5.125
0
VERTEX
10    
13.626
20  
5.217
0
VERTEX
10    
13.626
20  
5.303
0
VERTEX
10    
13.626
20  
5.448
0
VERTEX
10    
13.626
20  
5.558
0
VERTEX
10    
13.626
20  
5.645
0
VERTEX
10    
13.626
20  
5.74
0
VERTEX
10    
13.626
20  
5.907
0
VERTEX
10    
13.626
20  
6.002
0
VERTEX
10    
13.626
20  
6.087
0
VERTEX
10    
13.635
20  
6.205
0
VERTEX
10    
13.635
20  
6.32
0
VERTEX
10    
13.635
20  
6.416
0
VERTEX
10    
13.635
20  
6.507
0
VERTEX
10    
13.635
20  
6.643
0
VERTEX
10    
13.635
20  
6.745
0
VERTEX
10    
13.635
20  
6.836
0
VERTEX
10    
13.635
20  
6.939
0
VERTEX
10    
13.635
20  
7.081
0
VERTEX
10    
13.635
20  
7.176
0
VERTEX
10    
13.635
20  
7.266
0
VERTEX
10    
13.635
20  
7.376
0
VERTEX
10    
13.635
20  
7.506
0
VERTEX
10    
13.635
20  
7.589
0
VERTEX
10    
13.635
20  
7.698
0
VERTEX
10    
13.635
20  
7.828
0
VERTEX
10    
13.635
20  
7.956
0
VERTEX
10    
13.635
20  
8.042
0
VERTEX
10    
13.635
20  
8.155
0
VERTEX
10    
13.645
20  
8.283
0
VERTEX
10    
13.645
20  
8.375
0
VERTEX
10    
13.645
20  
8.462
0
VERTEX
10    
13.645
20  
8.561
0
VERTEX
10    
13.645
20  
8.682
0
VERTEX
10    
13.645
20  
8.769
0
VERTEX
10    
13.645
20  
8.868
0
VERTEX
10    
13.645
20  
8.973
0
VERTEX
10    
13.645
20  
9.094
0
VERTEX
10    
13.645
20  
9.169
0
VERTEX
10    
13.645
20  
9.248
0
VERTEX
10    
13.645
20  
9.339
0
VERTEX
10    
13.658
20  
9.472
0
VERTEX
10    
13.658
20  
9.559
0
VERTEX
10    
13.658
20  
9.634
0
VERTEX
10    
13.658
20  
9.716
0
VERTEX
10    
13.658
20  
9.843
0
VERTEX
10    
13.658
20  
9.934
0
VERTEX
10    
13.658
20  
10.01
0
VERTEX
10    
13.658
20  
10.081
0
VERTEX
10    
13.658
20  
10.18
0
VERTEX
10    
13.67
20  
10.303
0
VERTEX
10    
13.67
20  
10.383
0
VERTEX
10    
13.67
20  
10.464
0
VERTEX
10    
13.67
20  
10.558
0
VERTEX
10    
13.67
20  
10.682
0
VERTEX
10    
13.67
20  
10.766
0
VERTEX
10    
13.67
20  
10.854
0
VERTEX
10    
13.67
20  
10.983
0
VERTEX
10    
13.683
20  
11.107
0
VERTEX
10    
13.683
20  
11.185
0
VERTEX
10    
13.683
20  
11.295
0
VERTEX
10    
13.683
20  
11.406
0
VERTEX
10    
13.683
20  
11.521
0
VERTEX
10    
13.683
20  
11.619
0
VERTEX
10    
13.683
20  
11.701
0
VERTEX
10    
13.683
20  
11.84
0
VERTEX
10    
13.683
20  
11.95
0
VERTEX
10    
13.683
20  
12.042
0
VERTEX
10    
13.683
20  
12.126
0
VERTEX
10    
13.683
20  
12.247
0
VERTEX
10    
13.683
20  
12.333
0
VERTEX
10    
13.683
20  
12.424
0
VERTEX
10    
13.683
20  
12.502
0
VERTEX
10    
13.683
20  
12.63
0
VERTEX
10    
13.683
20  
12.733
0
VERTEX
10    
13.683
20  
12.813
0
VERTEX
10    
13.683
20  
12.887
0
VERTEX
10    
13.683
20  
12.999
0
VERTEX
10    
13.683
20  
13.121
0
VERTEX
10    
13.683
20  
13.199
0
VERTEX
10    
13.683
20  
13.284
0
VERTEX
10    
13.683
20  
13.38
0
VERTEX
10    
13.683
20  
13.5
0
VERTEX
10    
13.683
20  
13.576
0
VERTEX
10    
13.683
20  
13.655
0
VERTEX
10    
13.683
20  
13.751
0
VERTEX
10    
13.683
20  
13.875
0
VERTEX
10    
13.683
20  
13.963
0
VERTEX
10    
13.683
20  
14.027
0
VERTEX
10    
13.683
20  
14.087
0
VERTEX
10    
13.683
20  
14.163
0
VERTEX
10    
13.683
20  
14.245
0
VERTEX
10    
13.683
20  
14.302
0
VERTEX
10    
13.683
20  
14.35
0
VERTEX
10    
13.683
20  
14.385
0
VERTEX
10    
13.683
20  
14.395
0
VERTEX
10    
13.684
20  
14.403
0
VERTEX
10    
13.689
20  
14.418
0     
SEQEND
0 
POLYLINE
8     
PlasmaCutterPath
70  
0  
6 
Continuous
40    
0.1
41 
0.1   
43
0.1
0
VERTEX
10    
20.884
20  
10.222
0
VERTEX
10    
20.884
20  
10.213
0
VERTEX
10    
20.884
20  
10.201
0
VERTEX
10    
20.883
20  
10.19
0
VERTEX
10    
20.881
20  
10.205
0
VERTEX
10    
20.881
20  
10.216
0
VERTEX
10    
20.88
20  
10.233
0
VERTEX
10    
20.88
20  
10.245
0
VERTEX
10    
20.88
20  
10.258
0
VERTEX
10    
20.889
20  
10.258
0
VERTEX
10    
20.904
20  
10.259
0
VERTEX
10    
20.915
20  
10.259
0
VERTEX
10    
20.926
20  
10.248
0
VERTEX
10    
20.939
20  
10.248
0
VERTEX
10    
20.949
20  
10.248
0
VERTEX
10    
20.969
20  
10.248
0
VERTEX
10    
20.983
20  
10.248
0
VERTEX
10    
20.997
20  
10.248
0
VERTEX
10    
21.013
20  
10.248
0
VERTEX
10    
21.021
20  
10.248
0
VERTEX
10    
21.037
20  
10.246
0
VERTEX
10    
21.048
20  
10.246
0
VERTEX
10    
21.058
20  
10.246
0
VERTEX
10    
21.073
20  
10.243
0
VERTEX
10    
21.084
20  
10.243
0
VERTEX
10    
21.099
20  
10.243
0
VERTEX
10    
21.113
20  
10.24
0
VERTEX
10    
21.125
20  
10.24
0
VERTEX
10    
21.137
20  
10.239
0
VERTEX
10    
21.145
20  
10.239
0
VERTEX
10    
21.145
20  
10.228
0
VERTEX
10    
21.145
20  
10.213
0
VERTEX
10    
21.145
20  
10.202
0
VERTEX
10    
21.145
20  
10.191
0
VERTEX
10    
21.145
20  
10.172
0
VERTEX
10    
21.145
20  
10.158
0
VERTEX
10    
21.148
20  
10.144
0
VERTEX
10    
21.148
20  
10.131
0
VERTEX
10    
21.148
20  
10.116
0
VERTEX
10    
21.148
20  
10.101
0
VERTEX
10    
21.146
20  
10.087
0
VERTEX
10    
21.146
20  
10.073
0
VERTEX
10    
21.146
20  
10.059
0
VERTEX
10    
21.146
20  
10.043
0
VERTEX
10    
21.146
20  
10.029
0
VERTEX
10    
21.146
20  
10.011
0
VERTEX
10    
21.146
20  
9.994
0
VERTEX
10    
21.138
20  
9.975
0
VERTEX
10    
21.138
20  
9.966
0
VERTEX
10    
21.138
20  
9.945
0
VERTEX
10    
21.138
20  
9.935
0
VERTEX
10    
21.138
20  
9.922
0
VERTEX
10    
21.138
20  
9.906
0
VERTEX
10    
21.138
20  
9.888
0
VERTEX
10    
21.138
20  
9.871
0
VERTEX
10    
21.138
20  
9.853
0
VERTEX
10    
21.138
20  
9.835
0
VERTEX
10    
21.138
20  
9.817
0
VERTEX
10    
21.138
20  
9.796
0
VERTEX
10    
21.138
20  
9.765
0
VERTEX
10    
21.138
20  
9.745
0
VERTEX
10    
21.138
20  
9.729
0
VERTEX
10    
21.138
20  
9.713
0
VERTEX
10    
21.138
20  
9.699
0
VERTEX
10    
21.138
20  
9.688
0
VERTEX
10    
21.138
20  
9.676
0
VERTEX
10    
21.138
20  
9.659
0
VERTEX
10    
21.143
20  
9.644
0
VERTEX
10    
21.143
20  
9.634
0
VERTEX
10    
21.143
20  
9.616
0
VERTEX
10    
21.143
20  
9.603
0
VERTEX
10    
21.143
20  
9.592
0
VERTEX
10    
21.143
20  
9.583
0
VERTEX
10    
21.143
20  
9.559
0
VERTEX
10    
21.143
20  
9.544
0
VERTEX
10    
21.143
20  
9.523
0
VERTEX
10    
21.143
20  
9.501
0
VERTEX
10    
21.143
20  
9.469
0
VERTEX
10    
21.144
20  
9.438
0
VERTEX
10    
21.146
20  
9.409
0
VERTEX
10    
21.146
20  
9.366
0
VERTEX
10    
21.146
20  
9.341
0
VERTEX
10    
21.146
20  
9.326
0
VERTEX
10    
21.146
20  
9.306
0
VERTEX
10    
21.146
20  
9.29
0
VERTEX
10    
21.146
20  
9.272
0
VERTEX
10    
21.146
20  
9.259
0
VERTEX
10    
21.146
20  
9.248
0
VERTEX
10    
21.146
20  
9.236
0
VERTEX
10    
21.141
20  
9.224
0
VERTEX
10    
21.141
20  
9.216
0
VERTEX
10    
21.141
20  
9.199
0
VERTEX
10    
21.141
20  
9.179
0
VERTEX
10    
21.141
20  
9.163
0
VERTEX
10    
21.141
20  
9.15
0
VERTEX
10    
21.141
20  
9.137
0
VERTEX
10    
21.141
20  
9.124
0
VERTEX
10    
21.141
20  
9.111
0
VERTEX
10    
21.141
20  
9.096
0
VERTEX
10    
21.141
20  
9.081
0
VERTEX
10    
21.141
20  
9.067
0
VERTEX
10    
21.141
20  
9.052
0
VERTEX
10    
21.141
20  
9.038
0
VERTEX
10    
21.141
20  
9.025
0
VERTEX
10    
21.141
20  
9.013
0
VERTEX
10    
21.141
20  
8.999
0
VERTEX
10    
21.141
20  
8.98
0
VERTEX
10    
21.141
20  
8.967
0
VERTEX
10    
21.141
20  
8.951
0
VERTEX
10    
21.141
20  
8.937
0
VERTEX
10    
21.141
20  
8.922
0
VERTEX
10    
21.141
20  
8.909
0
VERTEX
10    
21.141
20  
8.896
0
VERTEX
10    
21.141
20  
8.879
0
VERTEX
10    
21.133
20  
8.873
0
VERTEX
10    
21.134
20  
8.861
0
VERTEX
10    
21.134
20  
8.852
0
VERTEX
10    
21.134
20  
8.841
0
VERTEX
10    
21.134
20  
8.831
0
VERTEX
10    
21.145
20  
8.814
0
VERTEX
10    
21.145
20  
8.8
0
VERTEX
10    
21.156
20  
8.8
0
VERTEX
10    
21.156
20  
8.785
0
VERTEX
10    
21.166
20  
8.785
0
VERTEX
10    
21.166
20  
8.769
0
VERTEX
10    
21.177
20  
8.769
0
VERTEX
10    
21.177
20  
8.756
0
VERTEX
10    
21.194
20  
8.756
0
VERTEX
10    
21.202
20  
8.738
0
VERTEX
10    
21.217
20  
8.74
0
VERTEX
10    
21.229
20  
8.74
0
VERTEX
10    
21.229
20  
8.73
0
VERTEX
10    
21.241
20  
8.73
0
VERTEX
10    
21.251
20  
8.73
0
VERTEX
10    
21.251
20  
8.741
0
VERTEX
10    
21.262
20  
8.741
0
VERTEX
10    
21.272
20  
8.741
0
VERTEX
10    
21.272
20  
8.752
0
VERTEX
10    
21.284
20  
8.752
0
VERTEX
10    
21.294
20  
8.752
0
VERTEX
10    
21.306
20  
8.764
0
VERTEX
10    
21.318
20  
8.764
0
VERTEX
10    
21.318
20  
8.774
0
VERTEX
10    
21.326
20  
8.778
0
VERTEX
10    
21.341
20  
8.787
0
VERTEX
10    
21.351
20  
8.786
0
VERTEX
10    
21.351
20  
8.802
0
VERTEX
10    
21.362
20  
8.813
0
VERTEX
10    
21.362
20  
8.828
0
VERTEX
10    
21.362
20  
8.842
0
VERTEX
10    
21.362
20  
8.855
0
VERTEX
10    
21.362
20  
8.865
0
VERTEX
10    
21.362
20  
8.879
0
VERTEX
10    
21.362
20  
8.891
0
VERTEX
10    
21.362
20  
8.906
0
VERTEX
10    
21.362
20  
8.914
0
VERTEX
10    
21.362
20  
8.929
0
VERTEX
10    
21.359
20  
8.944
0
VERTEX
10    
21.359
20  
8.961
0
VERTEX
10    
21.359
20  
8.97
0
VERTEX
10    
21.359
20  
8.995
0
VERTEX
10    
21.372
20  
9.021
0
VERTEX
10    
21.372
20  
9.036
0
VERTEX
10    
21.383
20  
9.053
0
VERTEX
10    
21.383
20  
9.072
0
VERTEX
10    
21.404
20  
9.094
0
VERTEX
10    
21.405
20  
9.106
0
VERTEX
10    
21.414
20  
9.119
0
VERTEX
10    
21.412
20  
9.132
0
VERTEX
10    
21.412
20  
9.144
0
VERTEX
10    
21.412
20  
9.155
0
VERTEX
10    
21.416
20  
9.166
0
VERTEX
10    
21.424
20  
9.172
0
VERTEX
10    
21.423
20  
9.19
0
VERTEX
10    
21.423
20  
9.203
0
VERTEX
10    
21.434
20  
9.203
0
VERTEX
10    
21.434
20  
9.217
0
VERTEX
10    
21.434
20  
9.23
0
VERTEX
10    
21.434
20  
9.244
0
VERTEX
10    
21.434
20  
9.261
0
VERTEX
10    
21.446
20  
9.271
0
VERTEX
10    
21.446
20  
9.283
0
VERTEX
10    
21.446
20  
9.293
0
VERTEX
10    
21.446
20  
9.307
0
VERTEX
10    
21.446
20  
9.328
0
VERTEX
10    
21.457
20  
9.347
0
VERTEX
10    
21.457
20  
9.365
0
VERTEX
10    
21.457
20  
9.387
0
VERTEX
10    
21.457
20  
9.417
0
VERTEX
10    
21.457
20  
9.443
0
VERTEX
10    
21.457
20  
9.463
0
VERTEX
10    
21.457
20  
9.482
0
VERTEX
10    
21.457
20  
9.501
0
VERTEX
10    
21.457
20  
9.519
0
VERTEX
10    
21.457
20  
9.532
0
VERTEX
10    
21.465
20  
9.544
0
VERTEX
10    
21.465
20  
9.558
0
VERTEX
10    
21.465
20  
9.57
0
VERTEX
10    
21.465
20  
9.582
0
VERTEX
10    
21.465
20  
9.593
0
VERTEX
10    
21.465
20  
9.6
0
VERTEX
10    
21.465
20  
9.619
0
VERTEX
10    
21.465
20  
9.629
0
VERTEX
10    
21.465
20  
9.64
0
VERTEX
10    
21.465
20  
9.652
0
VERTEX
10    
21.464
20  
9.665
0
VERTEX
10    
21.463
20  
9.68
0
VERTEX
10    
21.463
20  
9.699
0
VERTEX
10    
21.463
20  
9.722
0
VERTEX
10    
21.463
20  
9.742
0
VERTEX
10    
21.463
20  
9.764
0
VERTEX
10    
21.463
20  
9.796
0
VERTEX
10    
21.463
20  
9.85
0
VERTEX
10    
21.463
20  
9.878
0
VERTEX
10    
21.463
20  
9.909
0
VERTEX
10    
21.463
20  
9.931
0
VERTEX
10    
21.463
20  
9.947
0
VERTEX
10    
21.453
20  
9.966
0
VERTEX
10    
21.453
20  
9.987
0
VERTEX
10    
21.453
20  
10.003
0
VERTEX
10    
21.453
20  
10.021
0
VERTEX
10    
21.453
20  
10.038
0
VERTEX
10    
21.453
20  
10.046
0
VERTEX
10    
21.453
20  
10.065
0
VERTEX
10    
21.453
20  
10.077
0
VERTEX
10    
21.453
20  
10.091
0
VERTEX
10    
21.466
20  
10.11
0
VERTEX
10    
21.466
20  
10.127
0
VERTEX
10    
21.466
20  
10.134
0
VERTEX
10    
21.466
20  
10.149
0
VERTEX
10    
21.466
20  
10.167
0
VERTEX
10    
21.466
20  
10.181
0
VERTEX
10    
21.466
20  
10.194
0
VERTEX
10    
21.466
20  
10.211
0
VERTEX
10    
21.466
20  
10.226
0
VERTEX
10    
21.458
20  
10.226
0
VERTEX
10    
21.47
20  
10.226
0
VERTEX
10    
21.49
20  
10.226
0
VERTEX
10    
21.506
20  
10.234
0
VERTEX
10    
21.523
20  
10.234
0
VERTEX
10    
21.538
20  
10.234
0
VERTEX
10    
21.55
20  
10.234
0
VERTEX
10    
21.563
20  
10.234
0
VERTEX
10    
21.575
20  
10.234
0
VERTEX
10    
21.575
20  
10.224
0
VERTEX
10    
21.588
20  
10.224
0
VERTEX
10    
21.602
20  
10.224
0
VERTEX
10    
21.613
20  
10.224
0
VERTEX
10    
21.625
20  
10.22
0
VERTEX
10    
21.638
20  
10.22
0
VERTEX
10    
21.649
20  
10.22
0
VERTEX
10    
21.661
20  
10.22
0
VERTEX
10    
21.661
20  
10.21
0
VERTEX
10    
21.671
20  
10.21
0
VERTEX
10    
21.672
20  
10.203
0
VERTEX
10    
21.674
20  
10.176
0
VERTEX
10    
21.674
20  
10.164
0
VERTEX
10    
21.674
20  
10.15
0
VERTEX
10    
21.674
20  
10.14
0
VERTEX
10    
21.674
20  
10.121
0
VERTEX
10    
21.674
20  
10.103
0
VERTEX
10    
21.678
20  
10.087
0
VERTEX
10    
21.678
20  
10.071
0
VERTEX
10    
21.678
20  
10.053
0
VERTEX
10    
21.678
20  
10.035
0
VERTEX
10    
21.678
20  
10.025
0
VERTEX
10    
21.678
20  
10.012
0
VERTEX
10    
21.668
20  
10.001
0
VERTEX
10    
21.668
20  
9.989
0
VERTEX
10    
21.668
20  
9.977
0
VERTEX
10    
21.668
20  
9.963
0
VERTEX
10    
21.668
20  
9.948
0
VERTEX
10    
21.668
20  
9.934
0
VERTEX
10    
21.668
20  
9.918
0
VERTEX
10    
21.668
20  
9.902
0
VERTEX
10    
21.668
20  
9.883
0
VERTEX
10    
21.668
20  
9.866
0
VERTEX
10    
21.661
20  
9.843
0
VERTEX
10    
21.661
20  
9.824
0
VERTEX
10    
21.661
20  
9.802
0
VERTEX
10    
21.661
20  
9.771
0
VERTEX
10    
21.661
20  
9.751
0
VERTEX
10    
21.661
20  
9.719
0
VERTEX
10    
21.661
20  
9.701
0
VERTEX
10    
21.661
20  
9.685
0
VERTEX
10    
21.661
20  
9.67
0
VERTEX
10    
21.661
20  
9.651
0
VERTEX
10    
21.661
20  
9.633
0
VERTEX
10    
21.667
20  
9.615
0
VERTEX
10    
21.667
20  
9.599
0
VERTEX
10    
21.667
20  
9.586
0
VERTEX
10    
21.667
20  
9.571
0
VERTEX
10    
21.667
20  
9.557
0
VERTEX
10    
21.667
20  
9.537
0
VERTEX
10    
21.667
20  
9.51
0
VERTEX
10    
21.667
20  
9.484
0
VERTEX
10    
21.667
20  
9.465
0
VERTEX
10    
21.667
20  
9.446
0
VERTEX
10    
21.657
20  
9.425
0
VERTEX
10    
21.657
20  
9.396
0
VERTEX
10    
21.657
20  
9.375
0
VERTEX
10    
21.657
20  
9.345
0
VERTEX
10    
21.657
20  
9.321
0
VERTEX
10    
21.657
20  
9.307
0
VERTEX
10    
21.657
20  
9.291
0
VERTEX
10    
21.657
20  
9.279
0
VERTEX
10    
21.657
20  
9.263
0
VERTEX
10    
21.657
20  
9.246
0
VERTEX
10    
21.652
20  
9.231
0
VERTEX
10    
21.652
20  
9.216
0
VERTEX
10    
21.652
20  
9.203
0
VERTEX
10    
21.652
20  
9.191
0
VERTEX
10    
21.652
20  
9.181
0
VERTEX
10    
21.652
20  
9.167
0
VERTEX
10    
21.652
20  
9.155
0
VERTEX
10    
21.652
20  
9.143
0
VERTEX
10    
21.652
20  
9.13
0
VERTEX
10    
21.652
20  
9.119
0
VERTEX
10    
21.645
20  
9.105
0
VERTEX
10    
21.645
20  
9.097
0
VERTEX
10    
21.645
20  
9.077
0
VERTEX
10    
21.645
20  
9.066
0
VERTEX
10    
21.645
20  
9.051
0
VERTEX
10    
21.645
20  
9.037
0
VERTEX
10    
21.645
20  
9.022
0
VERTEX
10    
21.645
20  
9.01
0
VERTEX
10    
21.645
20  
8.997
0
VERTEX
10    
21.636
20  
8.975
0
VERTEX
10    
21.636
20  
8.96
0
VERTEX
10    
21.636
20  
8.944
0
VERTEX
10    
21.636
20  
8.926
0
VERTEX
10    
21.636
20  
8.91
0
VERTEX
10    
21.636
20  
8.899
0
VERTEX
10    
21.636
20  
8.883
0
VERTEX
10    
21.636
20  
8.866
0
VERTEX
10    
21.636
20  
8.85
0
VERTEX
10    
21.636
20  
8.837
0
VERTEX
10    
21.627
20  
8.826
0
VERTEX
10    
21.627
20  
8.814
0
VERTEX
10    
21.627
20  
8.801
0
VERTEX
10    
21.616
20  
8.801
0
VERTEX
10    
21.616
20  
8.79
0
VERTEX
10    
21.616
20  
8.779
0
VERTEX
10    
21.616
20  
8.765
0
VERTEX
10    
21.604
20  
8.752
0
VERTEX
10    
21.604
20  
8.736
0
VERTEX
10    
21.604
20  
8.723
0
VERTEX
10    
21.604
20  
8.709
0
VERTEX
10    
21.596
20  
8.709
0
VERTEX
10    
21.596
20  
8.693
0
VERTEX
10    
21.596
20  
8.677
0
VERTEX
10    
21.591
20  
8.669
0
VERTEX
10    
21.581
20  
8.652
0
VERTEX
10    
21.583
20  
8.639
0
VERTEX
10    
21.583
20  
8.627
0
VERTEX
10    
21.572
20  
8.627
0
VERTEX
10    
21.572
20  
8.613
0
VERTEX
10    
21.572
20  
8.602
0
VERTEX
10    
21.561
20  
8.602
0
VERTEX
10    
21.548
20  
8.584
0
VERTEX
10    
21.537
20  
8.584
0
VERTEX
10    
21.537
20  
8.573
0
VERTEX
10    
21.524
20  
8.573
0
VERTEX
10    
21.514
20  
8.573
0
VERTEX
10    
21.514
20  
8.56
0
VERTEX
10    
21.498
20  
8.56
0
VERTEX
10    
21.487
20  
8.543
0
VERTEX
10    
21.473
20  
8.543
0
VERTEX
10    
21.473
20  
8.531
0
VERTEX
10    
21.459
20  
8.531
0
VERTEX
10    
21.439
20  
8.531
0
VERTEX
10    
21.439
20  
8.52
0
VERTEX
10    
21.424
20  
8.52
0
VERTEX
10    
21.41
20  
8.52
0
VERTEX
10    
21.401
20  
8.515
0
VERTEX
10    
21.383
20  
8.505
0
VERTEX
10    
21.365
20  
8.507
0
VERTEX
10    
21.344
20  
8.507
0
VERTEX
10    
21.333
20  
8.507
0
VERTEX
10    
21.333
20  
8.496
0
VERTEX
10    
21.316
20  
8.496
0
VERTEX
10    
21.303
20  
8.496
0
VERTEX
10    
21.295
20  
8.496
0
VERTEX
10    
21.279
20  
8.496
0
VERTEX
10    
21.262
20  
8.496
0
VERTEX
10    
21.248
20  
8.488
0
VERTEX
10    
21.235
20  
8.488
0
VERTEX
10    
21.222
20  
8.488
0
VERTEX
10    
21.207
20  
8.488
0
VERTEX
10    
21.195
20  
8.488
0
VERTEX
10    
21.18
20  
8.488
0
VERTEX
10    
21.18
20  
8.499
0
VERTEX
10    
21.169
20  
8.499
0
VERTEX
10    
21.156
20  
8.499
0
VERTEX
10    
21.156
20  
8.511
0
VERTEX
10    
21.142
20  
8.511
0
VERTEX
10    
21.13
20  
8.511
0
VERTEX
10    
21.117
20  
8.511
0
VERTEX
10    
21.117
20  
8.521
0
VERTEX
10    
21.105
20  
8.521
0
VERTEX
10    
21.092
20  
8.521
0
VERTEX
10    
21.092
20  
8.531
0
VERTEX
10    
21.081
20  
8.531
0
VERTEX
10    
21.067
20  
8.531
0
VERTEX
10    
21.067
20  
8.544
0
VERTEX
10    
21.051
20  
8.544
0
VERTEX
10    
21.051
20  
8.555
0
VERTEX
10    
21.035
20  
8.555
0
VERTEX
10    
21.035
20  
8.567
0
VERTEX
10    
21.024
20  
8.567
0
VERTEX
10    
21.024
20  
8.581
0
VERTEX
10    
21.012
20  
8.581
0
VERTEX
10    
21.012
20  
8.597
0
VERTEX
10    
21.012
20  
8.612
0
VERTEX
10    
21
20  
8.612
0
VERTEX
10    
20.995
20  
8.644
0
VERTEX
10    
20.985
20  
8.657
0
VERTEX
10    
20.986
20  
8.667
0
VERTEX
10    
20.98
20  
8.679
0
VERTEX
10    
20.966
20  
8.691
0
VERTEX
10    
20.963
20  
8.706
0
VERTEX
10    
20.952
20  
8.719
0
VERTEX
10    
20.948
20  
8.732
0
VERTEX
10    
20.937
20  
8.747
0
VERTEX
10    
20.939
20  
8.759
0
VERTEX
10    
20.926
20  
8.77
0
VERTEX
10    
20.926
20  
8.783
0
VERTEX
10    
20.926
20  
8.798
0
VERTEX
10    
20.915
20  
8.811
0
VERTEX
10    
20.915
20  
8.822
0
VERTEX
10    
20.915
20  
8.836
0
VERTEX
10    
20.903
20  
8.847
0
VERTEX
10    
20.903
20  
8.858
0
VERTEX
10    
20.903
20  
8.868
0
VERTEX
10    
20.89
20  
8.868
0
VERTEX
10    
20.89
20  
8.883
0
VERTEX
10    
20.89
20  
8.89
0
VERTEX
10    
20.886
20  
8.906
0
VERTEX
10    
20.877
20  
8.911
0
VERTEX
10    
20.878
20  
8.931
0
VERTEX
10    
20.878
20  
8.943
0
VERTEX
10    
20.878
20  
8.963
0
VERTEX
10    
20.878
20  
8.983
0
VERTEX
10    
20.878
20  
9.012
0
VERTEX
10    
20.878
20  
9.037
0
VERTEX
10    
20.875
20  
9.047
0
VERTEX
10    
20.868
20  
9.07
0
VERTEX
10    
20.869
20  
9.079
0
VERTEX
10    
20.869
20  
9.089
0
VERTEX
10    
20.869
20  
9.099
0
VERTEX
10    
20.869
20  
9.116
0
VERTEX
10    
20.869
20  
9.126
0
VERTEX
10    
20.864
20  
9.137
0
VERTEX
10    
20.865
20  
9.164
0
VERTEX
10    
20.865
20  
9.173
0
VERTEX
10    
20.865
20  
9.192
0
VERTEX
10    
20.865
20  
9.205
0
VERTEX
10    
20.865
20  
9.221
0
VERTEX
10    
20.865
20  
9.233
0
VERTEX
10    
20.865
20  
9.241
0
VERTEX
10    
20.868
20  
9.257
0
VERTEX
10    
20.876
20  
9.262
0
VERTEX
10    
20.875
20  
9.284
0
VERTEX
10    
20.875
20  
9.304
0
VERTEX
10    
20.875
20  
9.325
0
VERTEX
10    
20.875
20  
9.343
0
VERTEX
10    
20.875
20  
9.351
0
VERTEX
10    
20.875
20  
9.36
0
VERTEX
10    
20.875
20  
9.397
0
VERTEX
10    
20.875
20  
9.448
0
VERTEX
10    
20.875
20  
9.465
0
VERTEX
10    
20.868
20  
9.484
0
VERTEX
10    
20.868
20  
9.511
0
VERTEX
10    
20.868
20  
9.527
0
VERTEX
10    
20.868
20  
9.536
0
VERTEX
10    
20.868
20  
9.556
0
VERTEX
10    
20.868
20  
9.568
0
VERTEX
10    
20.868
20  
9.583
0
VERTEX
10    
20.868
20  
9.597
0
VERTEX
10    
20.868
20  
9.613
0
VERTEX
10    
20.868
20  
9.626
0
VERTEX
10    
20.868
20  
9.639
0
VERTEX
10    
20.868
20  
9.658
0
VERTEX
10    
20.868
20  
9.672
0
VERTEX
10    
20.879
20  
9.697
0
VERTEX
10    
20.879
20  
9.742
0
VERTEX
10    
20.879
20  
9.785
0
VERTEX
10    
20.879
20  
9.825
0
VERTEX
10    
20.889
20  
9.853
0
VERTEX
10    
20.889
20  
9.88
0
VERTEX
10    
20.889
20  
9.904
0
VERTEX
10    
20.889
20  
9.925
0
VERTEX
10    
20.889
20  
9.942
0
VERTEX
10    
20.889
20  
9.955
0
VERTEX
10    
20.889
20  
9.971
0
VERTEX
10    
20.889
20  
9.986
0
VERTEX
10    
20.889
20  
10.002
0
VERTEX
10    
20.889
20  
10.015
0
VERTEX
10    
20.889
20  
10.029
0
VERTEX
10    
20.889
20  
10.042
0
VERTEX
10    
20.889
20  
10.056
0
VERTEX
10    
20.889
20  
10.066
0
VERTEX
10    
20.889
20  
10.081
0
VERTEX
10    
20.889
20  
10.089
0
VERTEX
10    
20.893
20  
10.106
0
VERTEX
10    
20.9
20  
10.11
0
VERTEX
10    
20.899
20  
10.128
0
VERTEX
10    
20.899
20  
10.138
0
VERTEX
10    
20.899
20  
10.149
0
VERTEX
10    
20.899
20  
10.164
0
VERTEX
10    
20.899
20  
10.178
0
VERTEX
10    
20.899
20  
10.19
0
VERTEX
10    
20.899
20  
10.202
0
VERTEX
10    
20.899
20  
10.215
0
VERTEX
10    
20.892
20  
10.227
0
VERTEX
10    
20.892
20  
10.237
0
VERTEX
10    
20.905
20  
10.237
0
VERTEX
10    
20.905
20  
10.251
0
VERTEX
10    
20.92
20  
10.251
0
VERTEX
10    
20.928
20  
10.251
0
VERTEX
10    
20.947
20  
10.251
0
VERTEX
10    
20.958
20  
10.251
0
VERTEX
10    
20.971
20  
10.251
0
VERTEX
10    
20.986
20  
10.251
0
VERTEX
10    
21.005
20  
10.251
0
VERTEX
10    
21.022
20  
10.251
0
VERTEX
10    
21.033
20  
10.246
0
VERTEX
10    
21.041
20  
10.237
0
VERTEX
10    
21.055
20  
10.239
0
VERTEX
10    
21.074
20  
10.239
0
VERTEX
10    
21.088
20  
10.239
0
VERTEX
10    
21.098
20  
10.239
0
VERTEX
10    
21.098
20  
10.23
0
VERTEX
10    
21.106
20  
10.23
0
VERTEX
10    
21.105
20  
10.222
0     
SEQEND
0 
POLYLINE
8     
PlasmaCutterPath
70  
0  
6 
Continuous
40    
0.1
41 
0.1   
43
0.1
0
VERTEX
10    
22.32
20  
10.197
0
VERTEX
10    
22.335
20  
10.2
0
VERTEX
10    
22.346
20  
10.2
0
VERTEX
10    
22.361
20  
10.2
0
VERTEX
10    
22.372
20  
10.2
0
VERTEX
10    
22.382
20  
10.2
0
VERTEX
10    
22.395
20  
10.2
0
VERTEX
10    
22.408
20  
10.2
0
VERTEX
10    
22.419
20  
10.2
0
VERTEX
10    
22.431
20  
10.2
0
VERTEX
10    
22.431
20  
10.19
0
VERTEX
10    
22.442
20  
10.19
0
VERTEX
10    
22.453
20  
10.19
0
VERTEX
10    
22.453
20  
10.178
0
VERTEX
10    
22.464
20  
10.178
0
VERTEX
10    
22.478
20  
10.166
0
VERTEX
10    
22.491
20  
10.166
0
VERTEX
10    
22.491
20  
10.155
0
VERTEX
10    
22.506
20  
10.155
0
VERTEX
10    
22.518
20  
10.143
0
VERTEX
10    
22.533
20  
10.13
0
VERTEX
10    
22.544
20  
10.13
0
VERTEX
10    
22.544
20  
10.12
0
VERTEX
10    
22.559
20  
10.12
0
VERTEX
10    
22.572
20  
10.12
0
VERTEX
10    
22.572
20  
10.106
0
VERTEX
10    
22.593
20  
10.106
0
VERTEX
10    
22.612
20  
10.101
0
VERTEX
10    
22.619
20  
10.092
0
VERTEX
10    
22.628
20  
10.093
0
VERTEX
10    
22.628
20  
10.083
0
VERTEX
10    
22.639
20  
10.083
0
VERTEX
10    
22.651
20  
10.07
0
VERTEX
10    
22.651
20  
10.06
0
VERTEX
10    
22.664
20  
10.06
0
VERTEX
10    
22.664
20  
10.049
0
VERTEX
10    
22.675
20  
10.049
0
VERTEX
10    
22.675
20  
10.037
0
VERTEX
10    
22.687
20  
10.024
0
VERTEX
10    
22.687
20  
10.01
0
VERTEX
10    
22.698
20  
9.997
0
VERTEX
10    
22.698
20  
9.982
0
VERTEX
10    
22.709
20  
9.982
0
VERTEX
10    
22.709
20  
9.969
0
VERTEX
10    
22.709
20  
9.953
0
VERTEX
10    
22.709
20  
9.94
0
VERTEX
10    
22.721
20  
9.94
0
VERTEX
10    
22.721
20  
9.925
0
VERTEX
10    
22.721
20  
9.906
0
VERTEX
10    
22.721
20  
9.894
0
VERTEX
10    
22.721
20  
9.881
0
VERTEX
10    
22.721
20  
9.863
0
VERTEX
10    
22.724
20  
9.847
0
VERTEX
10    
22.724
20  
9.83
0
VERTEX
10    
22.724
20  
9.818
0
VERTEX
10    
22.724
20  
9.805
0
VERTEX
10    
22.722
20  
9.794
0
VERTEX
10    
22.722
20  
9.783
0
VERTEX
10    
22.709
20  
9.783
0
VERTEX
10    
22.698
20  
9.783
0
VERTEX
10    
22.686
20  
9.769
0
VERTEX
10    
22.67
20  
9.769
0
VERTEX
10    
22.654
20  
9.769
0
VERTEX
10    
22.639
20  
9.769
0
VERTEX
10    
22.619
20  
9.769
0
VERTEX
10    
22.604
20  
9.769
0
VERTEX
10    
22.572
20  
9.769
0
VERTEX
10    
22.552
20  
9.769
0
VERTEX
10    
22.535
20  
9.769
0
VERTEX
10    
22.521
20  
9.766
0
VERTEX
10    
22.506
20  
9.76
0
VERTEX
10    
22.498
20  
9.761
0
VERTEX
10    
22.485
20  
9.761
0
VERTEX
10    
22.467
20  
9.761
0
VERTEX
10    
22.457
20  
9.761
0
VERTEX
10    
22.457
20  
9.771
0
VERTEX
10    
22.457
20  
9.784
0
VERTEX
10    
22.457
20  
9.805
0
VERTEX
10    
22.446
20  
9.816
0
VERTEX
10    
22.446
20  
9.827
0
VERTEX
10    
22.446
20  
9.845
0
VERTEX
10    
22.446
20  
9.865
0
VERTEX
10    
22.446
20  
9.883
0
VERTEX
10    
22.446
20  
9.898
0
VERTEX
10    
22.438
20  
9.898
0
VERTEX
10    
22.438
20  
9.913
0
VERTEX
10    
22.438
20  
9.924
0
VERTEX
10    
22.438
20  
9.935
0
VERTEX
10    
22.427
20  
9.948
0
VERTEX
10    
22.427
20  
9.959
0
VERTEX
10    
22.414
20  
9.959
0
VERTEX
10    
22.414
20  
9.971
0
VERTEX
10    
22.4
20  
9.971
0
VERTEX
10    
22.387
20  
9.971
0
VERTEX
10    
22.387
20  
9.981
0
VERTEX
10    
22.375
20  
9.981
0
VERTEX
10    
22.362
20  
9.981
0
VERTEX
10    
22.352
20  
9.981
0
VERTEX
10    
22.34
20  
9.981
0
VERTEX
10    
22.34
20  
9.969
0
VERTEX
10    
22.326
20  
9.969
0
VERTEX
10    
22.326
20  
9.957
0
VERTEX
10    
22.316
20  
9.957
0
VERTEX
10    
22.316
20  
9.946
0
VERTEX
10    
22.299
20  
9.946
0
VERTEX
10    
22.299
20  
9.934
0
VERTEX
10    
22.286
20  
9.934
0
VERTEX
10    
22.286
20  
9.92
0
VERTEX
10    
22.276
20  
9.907
0
VERTEX
10    
22.276
20  
9.893
0
VERTEX
10    
22.276
20  
9.875
0
VERTEX
10    
22.276
20  
9.865
0
VERTEX
10    
22.276
20  
9.847
0
VERTEX
10    
22.276
20  
9.832
0
VERTEX
10    
22.276
20  
9.816
0
VERTEX
10    
22.276
20  
9.805
0
VERTEX
10    
22.288
20  
9.789
0
VERTEX
10    
22.288
20  
9.775
0
VERTEX
10    
22.288
20  
9.763
0
VERTEX
10    
22.299
20  
9.763
0
VERTEX
10    
22.299
20  
9.747
0
VERTEX
10    
22.309
20  
9.729
0
VERTEX
10    
22.309
20  
9.716
0
VERTEX
10    
22.32
20  
9.716
0
VERTEX
10    
22.32
20  
9.703
0
VERTEX
10    
22.32
20  
9.691
0
VERTEX
10    
22.331
20  
9.68
0
VERTEX
10    
22.331
20  
9.67
0
VERTEX
10    
22.331
20  
9.655
0
VERTEX
10    
22.343
20  
9.655
0
VERTEX
10    
22.343
20  
9.633
0
VERTEX
10    
22.353
20  
9.621
0
VERTEX
10    
22.353
20  
9.611
0
VERTEX
10    
22.365
20  
9.611
0
VERTEX
10    
22.365
20  
9.598
0
VERTEX
10    
22.365
20  
9.587
0
VERTEX
10    
22.377
20  
9.587
0
VERTEX
10    
22.377
20  
9.575
0
VERTEX
10    
22.377
20  
9.563
0
VERTEX
10    
22.388
20  
9.563
0
VERTEX
10    
22.388
20  
9.549
0
VERTEX
10    
22.399
20  
9.549
0
VERTEX
10    
22.399
20  
9.524
0
VERTEX
10    
22.406
20  
9.513
0
VERTEX
10    
22.424
20  
9.499
0
VERTEX
10    
22.43
20  
9.482
0
VERTEX
10    
22.434
20  
9.465
0
VERTEX
10    
22.445
20  
9.452
0
VERTEX
10    
22.447
20  
9.442
0
VERTEX
10    
22.455
20  
9.432
0
VERTEX
10    
22.454
20  
9.417
0
VERTEX
10    
22.454
20  
9.401
0
VERTEX
10    
22.469
20  
9.374
0
VERTEX
10    
22.481
20  
9.346
0
VERTEX
10    
22.493
20  
9.327
0
VERTEX
10    
22.507
20  
9.308
0
VERTEX
10    
22.522
20  
9.292
0
VERTEX
10    
22.534
20  
9.292
0
VERTEX
10    
22.534
20  
9.275
0
VERTEX
10    
22.548
20  
9.275
0
VERTEX
10    
22.548
20  
9.257
0
VERTEX
10    
22.569
20  
9.257
0
VERTEX
10    
22.569
20  
9.244
0
VERTEX
10    
22.581
20  
9.244
0
VERTEX
10    
22.581
20  
9.229
0
VERTEX
10    
22.612
20  
9.211
0
VERTEX
10    
22.625
20  
9.204
0
VERTEX
10    
22.632
20  
9.194
0
VERTEX
10    
22.643
20  
9.194
0
VERTEX
10    
22.643
20  
9.183
0
VERTEX
10    
22.643
20  
9.169
0
VERTEX
10    
22.654
20  
9.169
0
VERTEX
10    
22.654
20  
9.155
0
VERTEX
10    
22.667
20  
9.144
0
VERTEX
10    
22.667
20  
9.126
0
VERTEX
10    
22.681
20  
9.115
0
VERTEX
10    
22.681
20  
9.104
0
VERTEX
10    
22.693
20  
9.093
0
VERTEX
10    
22.693
20  
9.082
0
VERTEX
10    
22.693
20  
9.072
0
VERTEX
10    
22.705
20  
9.072
0
VERTEX
10    
22.705
20  
9.058
0
VERTEX
10    
22.705
20  
9.044
0
VERTEX
10    
22.715
20  
9.044
0
VERTEX
10    
22.715
20  
9.024
0
VERTEX
10    
22.715
20  
9.011
0
VERTEX
10    
22.715
20  
8.995
0
VERTEX
10    
22.727
20  
8.977
0
VERTEX
10    
22.727
20  
8.957
0
VERTEX
10    
22.727
20  
8.94
0
VERTEX
10    
22.727
20  
8.928
0
VERTEX
10    
22.737
20  
8.914
0
VERTEX
10    
22.737
20  
8.9
0
VERTEX
10    
22.737
20  
8.885
0
VERTEX
10    
22.737
20  
8.877
0
VERTEX
10    
22.737
20  
8.861
0
VERTEX
10    
22.737
20  
8.846
0
VERTEX
10    
22.737
20  
8.828
0
VERTEX
10    
22.737
20  
8.81
0
VERTEX
10    
22.737
20  
8.793
0
VERTEX
10    
22.726
20  
8.777
0
VERTEX
10    
22.726
20  
8.763
0
VERTEX
10    
22.722
20  
8.755
0
VERTEX
10    
22.713
20  
8.739
0
VERTEX
10    
22.714
20  
8.731
0
VERTEX
10    
22.714
20  
8.719
0
VERTEX
10    
22.701
20  
8.719
0
VERTEX
10    
22.701
20  
8.708
0
VERTEX
10    
22.69
20  
8.696
0
VERTEX
10    
22.69
20  
8.682
0
VERTEX
10    
22.679
20  
8.682
0
VERTEX
10    
22.679
20  
8.67
0
VERTEX
10    
22.667
20  
8.67
0
VERTEX
10    
22.667
20  
8.655
0
VERTEX
10    
22.653
20  
8.643
0
VERTEX
10    
22.653
20  
8.626
0
VERTEX
10    
22.634
20  
8.611
0
VERTEX
10    
22.634
20  
8.6
0
VERTEX
10    
22.619
20  
8.6
0
VERTEX
10    
22.619
20  
8.59
0
VERTEX
10    
22.609
20  
8.59
0
VERTEX
10    
22.609
20  
8.579
0
VERTEX
10    
22.587
20  
8.562
0
VERTEX
10    
22.571
20  
8.555
0
VERTEX
10    
22.562
20  
8.551
0
VERTEX
10    
22.555
20  
8.537
0
VERTEX
10    
22.531
20  
8.53
0
VERTEX
10    
22.518
20  
8.526
0
VERTEX
10    
22.507
20  
8.514
0
VERTEX
10    
22.502
20  
8.504
0
VERTEX
10    
22.482
20  
8.504
0
VERTEX
10    
22.482
20  
8.493
0
VERTEX
10    
22.465
20  
8.493
0
VERTEX
10    
22.455
20  
8.481
0
VERTEX
10    
22.444
20  
8.481
0
VERTEX
10    
22.431
20  
8.481
0
VERTEX
10    
22.431
20  
8.467
0
VERTEX
10    
22.419
20  
8.467
0
VERTEX
10    
22.405
20  
8.467
0
VERTEX
10    
22.395
20  
8.467
0
VERTEX
10    
22.395
20  
8.455
0
VERTEX
10    
22.382
20  
8.455
0
VERTEX
10    
22.371
20  
8.455
0
VERTEX
10    
22.354
20  
8.455
0
VERTEX
10    
22.34
20  
8.455
0
VERTEX
10    
22.322
20  
8.455
0
VERTEX
10    
22.31
20  
8.455
0
VERTEX
10    
22.294
20  
8.455
0
VERTEX
10    
22.282
20  
8.455
0
VERTEX
10    
22.264
20  
8.466
0
VERTEX
10    
22.252
20  
8.466
0
VERTEX
10    
22.235
20  
8.466
0
VERTEX
10    
22.22
20  
8.476
0
VERTEX
10    
22.205
20  
8.476
0
VERTEX
10    
22.183
20  
8.476
0
VERTEX
10    
22.17
20  
8.48
0
VERTEX
10    
22.163
20  
8.488
0
VERTEX
10    
22.15
20  
8.487
0
VERTEX
10    
22.138
20  
8.487
0
VERTEX
10    
22.138
20  
8.497
0
VERTEX
10    
22.127
20  
8.497
0
VERTEX
10    
22.114
20  
8.497
0
VERTEX
10    
22.114
20  
8.508
0
VERTEX
10    
22.103
20  
8.508
0
VERTEX
10    
22.103
20  
8.524
0
VERTEX
10    
22.089
20  
8.524
0
VERTEX
10    
22.089
20  
8.538
0
VERTEX
10    
22.077
20  
8.548
0
VERTEX
10    
22.077
20  
8.561
0
VERTEX
10    
22.064
20  
8.561
0
VERTEX
10    
22.064
20  
8.573
0
VERTEX
10    
22.054
20  
8.584
0
VERTEX
10    
22.054
20  
8.592
0
VERTEX
10    
22.042
20  
8.621
0
VERTEX
10    
22.042
20  
8.637
0
VERTEX
10    
22.032
20  
8.657
0
VERTEX
10    
22.032
20  
8.67
0
VERTEX
10    
22.032
20  
8.68
0
VERTEX
10    
22.032
20  
8.692
0
VERTEX
10    
22.021
20  
8.692
0
VERTEX
10    
22.021
20  
8.713
0
VERTEX
10    
22.021
20  
8.728
0
VERTEX
10    
22.009
20  
8.728
0
VERTEX
10    
22.009
20  
8.74
0
VERTEX
10    
22.009
20  
8.751
0
VERTEX
10    
22.009
20  
8.764
0
VERTEX
10    
21.996
20  
8.764
0
VERTEX
10    
21.998
20  
8.775
0
VERTEX
10    
21.998
20  
8.791
0
VERTEX
10    
21.987
20  
8.791
0
VERTEX
10    
21.987
20  
8.803
0
VERTEX
10    
21.987
20  
8.814
0
VERTEX
10    
21.977
20  
8.831
0
VERTEX
10    
21.977
20  
8.846
0
VERTEX
10    
21.977
20  
8.858
0
VERTEX
10    
21.966
20  
8.858
0
VERTEX
10    
21.966
20  
8.883
0
VERTEX
10    
21.966
20  
8.901
0
VERTEX
10    
21.955
20  
8.919
0
VERTEX
10    
21.955
20  
8.93
0
VERTEX
10    
21.955
20  
8.947
0
VERTEX
10    
21.955
20  
8.959
0
VERTEX
10    
21.952
20  
8.973
0
VERTEX
10    
21.963
20  
8.973
0
VERTEX
10    
21.974
20  
8.973
0
VERTEX
10    
21.987
20  
8.988
0
VERTEX
10    
22.001
20  
8.988
0
VERTEX
10    
22.012
20  
8.998
0
VERTEX
10    
22.022
20  
8.998
0
VERTEX
10    
22.037
20  
8.998
0
VERTEX
10    
22.048
20  
9.01
0
VERTEX
10    
22.059
20  
9.01
0
VERTEX
10    
22.072
20  
9.01
0
VERTEX
10    
22.085
20  
9.01
0
VERTEX
10    
22.085
20  
9.022
0
VERTEX
10    
22.097
20  
9.01
0
VERTEX
10    
22.097
20  
8.997
0
VERTEX
10    
22.107
20  
8.997
0
VERTEX
10    
22.107
20  
8.986
0
VERTEX
10    
22.107
20  
8.978
0
VERTEX
10    
22.113
20  
8.961
0
VERTEX
10    
22.125
20  
8.958
0
VERTEX
10    
22.123
20  
8.946
0
VERTEX
10    
22.134
20  
8.938
0
VERTEX
10    
22.134
20  
8.929
0
VERTEX
10    
22.139
20  
8.907
0
VERTEX
10    
22.15
20  
8.892
0
VERTEX
10    
22.154
20  
8.879
0
VERTEX
10    
22.167
20  
8.875
0
VERTEX
10    
22.165
20  
8.863
0
VERTEX
10    
22.179
20  
8.848
0
VERTEX
10    
22.19
20  
8.836
0
VERTEX
10    
22.208
20  
8.817
0
VERTEX
10    
22.224
20  
8.806
0
VERTEX
10    
22.247
20  
8.794
0
VERTEX
10    
22.267
20  
8.787
0
VERTEX
10    
22.267
20  
8.776
0
VERTEX
10    
22.281
20  
8.776
0
VERTEX
10    
22.292
20  
8.776
0
VERTEX
10    
22.306
20  
8.762
0
VERTEX
10    
22.314
20  
8.762
0
VERTEX
10    
22.328
20  
8.762
0
VERTEX
10    
22.345
20  
8.751
0
VERTEX
10    
22.355
20  
8.751
0
VERTEX
10    
22.367
20  
8.751
0
VERTEX
10    
22.377
20  
8.751
0
VERTEX
10    
22.39
20  
8.762
0
VERTEX
10    
22.4
20  
8.762
0
VERTEX
10    
22.4
20  
8.774
0
VERTEX
10    
22.412
20  
8.774
0
VERTEX
10    
22.412
20  
8.788
0
VERTEX
10    
22.423
20  
8.788
0
VERTEX
10    
22.423
20  
8.804
0
VERTEX
10    
22.434
20  
8.814
0
VERTEX
10    
22.434
20  
8.826
0
VERTEX
10    
22.444
20  
8.826
0
VERTEX
10    
22.444
20  
8.838
0
VERTEX
10    
22.444
20  
8.852
0
VERTEX
10    
22.454
20  
8.852
0
VERTEX
10    
22.454
20  
8.865
0
VERTEX
10    
22.454
20  
8.876
0
VERTEX
10    
22.454
20  
8.887
0
VERTEX
10    
22.464
20  
8.887
0
VERTEX
10    
22.464
20  
8.902
0
VERTEX
10    
22.464
20  
8.918
0
VERTEX
10    
22.464
20  
8.929
0
VERTEX
10    
22.464
20  
8.948
0
VERTEX
10    
22.464
20  
8.968
0
VERTEX
10    
22.454
20  
8.981
0
VERTEX
10    
22.454
20  
9
0
VERTEX
10    
22.454
20  
9.015
0
VERTEX
10    
22.438
20  
9.015
0
VERTEX
10    
22.438
20  
9.035
0
VERTEX
10    
22.433
20  
9.042
0
VERTEX
10    
22.424
20  
9.058
0
VERTEX
10    
22.426
20  
9.074
0
VERTEX
10    
22.414
20  
9.087
0
VERTEX
10    
22.414
20  
9.101
0
VERTEX
10    
22.403
20  
9.116
0
VERTEX
10    
22.403
20  
9.135
0
VERTEX
10    
22.388
20  
9.135
0
VERTEX
10    
22.388
20  
9.146
0
VERTEX
10    
22.388
20  
9.159
0
VERTEX
10    
22.375
20  
9.159
0
VERTEX
10    
22.375
20  
9.175
0
VERTEX
10    
22.364
20  
9.175
0
VERTEX
10    
22.364
20  
9.187
0
VERTEX
10    
22.353
20  
9.187
0
VERTEX
10    
22.353
20  
9.202
0
VERTEX
10    
22.337
20  
9.217
0
VERTEX
10    
22.337
20  
9.232
0
VERTEX
10    
22.313
20  
9.247
0
VERTEX
10    
22.3
20  
9.261
0
VERTEX
10    
22.284
20  
9.274
0
VERTEX
10    
22.27
20  
9.295
0
VERTEX
10    
22.257
20  
9.308
0
VERTEX
10    
22.237
20  
9.321
0
VERTEX
10    
22.224
20  
9.332
0
VERTEX
10    
22.224
20  
9.345
0
VERTEX
10    
22.209
20  
9.345
0
VERTEX
10    
22.209
20  
9.356
0
VERTEX
10    
22.196
20  
9.363
0
VERTEX
10    
22.192
20  
9.378
0
VERTEX
10    
22.182
20  
9.382
0
VERTEX
10    
22.18
20  
9.404
0
VERTEX
10    
22.162
20  
9.44
0
VERTEX
10    
22.148
20  
9.465
0
VERTEX
10    
22.136
20  
9.487
0
VERTEX
10    
22.124
20  
9.505
0
VERTEX
10    
22.11
20  
9.518
0
VERTEX
10    
22.11
20  
9.526
0
VERTEX
10    
22.103
20  
9.547
0
VERTEX
10    
22.089
20  
9.556
0
VERTEX
10    
22.076
20  
9.562
0
VERTEX
10    
22.076
20  
9.572
0
VERTEX
10    
22.066
20  
9.584
0
VERTEX
10    
22.066
20  
9.595
0
VERTEX
10    
22.066
20  
9.608
0
VERTEX
10    
22.054
20  
9.608
0
VERTEX
10    
22.054
20  
9.619
0
VERTEX
10    
22.054
20  
9.63
0
VERTEX
10    
22.045
20  
9.63
0
VERTEX
10    
22.045
20  
9.64
0
VERTEX
10    
22.035
20  
9.655
0
VERTEX
10    
22.035
20  
9.666
0
VERTEX
10    
22.021
20  
9.683
0
VERTEX
10    
22.021
20  
9.69
0
VERTEX
10    
22.017
20  
9.705
0
VERTEX
10    
22.009
20  
9.707
0
VERTEX
10    
22.011
20  
9.715
0
VERTEX
10    
22.011
20  
9.735
0
VERTEX
10    
22.011
20  
9.748
0
VERTEX
10    
21.997
20  
9.775
0
VERTEX
10    
21.999
20  
9.787
0
VERTEX
10    
21.999
20  
9.801
0
VERTEX
10    
21.999
20  
9.817
0
VERTEX
10    
21.999
20  
9.828
0
VERTEX
10    
21.999
20  
9.839
0
VERTEX
10    
21.999
20  
9.854
0
VERTEX
10    
21.999
20  
9.871
0
VERTEX
10    
21.991
20  
9.886
0
VERTEX
10    
21.991
20  
9.905
0
VERTEX
10    
21.991
20  
9.913
0
VERTEX
10    
21.991
20  
9.933
0
VERTEX
10    
21.991
20  
9.943
0
VERTEX
10    
21.991
20  
9.955
0
VERTEX
10    
21.995
20  
9.97
0
VERTEX
10    
22.002
20  
9.983
0
VERTEX
10    
22.001
20  
9.996
0
VERTEX
10    
22.012
20  
10.018
0
VERTEX
10    
22.012
20  
10.036
0
VERTEX
10    
22.024
20  
10.036
0
VERTEX
10    
22.024
20  
10.058
0
VERTEX
10    
22.038
20  
10.073
0
VERTEX
10    
22.054
20  
10.092
0
VERTEX
10    
22.059
20  
10.1
0
VERTEX
10    
22.07
20  
10.117
0
VERTEX
10    
22.084
20  
10.129
0
VERTEX
10    
22.084
20  
10.14
0
VERTEX
10    
22.103
20  
10.151
0
VERTEX
10    
22.119
20  
10.163
0
VERTEX
10    
22.14
20  
10.163
0
VERTEX
10    
22.152
20  
10.182
0
VERTEX
10    
22.173
20  
10.182
0
VERTEX
10    
22.194
20  
10.199
0
VERTEX
10    
22.231
20  
10.206
0
VERTEX
10    
22.254
20  
10.219
0
VERTEX
10    
22.278
20  
10.217
0
VERTEX
10    
22.29
20  
10.221
0
VERTEX
10    
22.301
20  
10.229
0
VERTEX
10    
22.313
20  
10.228
0
VERTEX
10    
22.327
20  
10.228
0
VERTEX
10    
22.34
20  
10.228
0
VERTEX
10    
22.352
20  
10.228
0
VERTEX
10    
22.362
20  
10.228
0
VERTEX
10    
22.372
20  
10.228
0
VERTEX
10    
22.383
20  
10.228
0
VERTEX
10    
22.388
20  
10.236
0
VERTEX
10    
22.399
20  
10.235
0
VERTEX
10    
22.409
20  
10.235
0
VERTEX
10    
22.422
20  
10.235
0
VERTEX
10    
22.422
20  
10.221
0
VERTEX
10    
22.436
20  
10.221
0
VERTEX
10    
22.449
20  
10.221
0
VERTEX
10    
22.449
20  
10.21
0
VERTEX
10    
22.462
20  
10.21
0
VERTEX
10    
22.462
20  
10.202
0     
SEQEND
0 
POLYLINE
8     
PlasmaCutterPath
70  
0  
6 
Continuous
40    
0.1
41 
0.1   
43
0.1
0
VERTEX
10    
23.324
20  
10.194
0
VERTEX
10    
23.346
20  
10.196
0
VERTEX
10    
23.382
20  
10.196
0
VERTEX
10    
23.435
20  
10.196
0
VERTEX
10    
23.452
20  
10.192
0
VERTEX
10    
23.466
20  
10.184
0
VERTEX
10    
23.48
20  
10.186
0
VERTEX
10    
23.496
20  
10.186
0
VERTEX
10    
23.51
20  
10.186
0
VERTEX
10    
23.521
20  
10.186
0
VERTEX
10    
23.532
20  
10.186
0
VERTEX
10    
23.543
20  
10.185
0
VERTEX
10    
23.561
20  
10.185
0
VERTEX
10    
23.576
20  
10.185
0
VERTEX
10    
23.59
20  
10.185
0
VERTEX
10    
23.602
20  
10.185
0
VERTEX
10    
23.619
20  
10.185
0
VERTEX
10    
23.63
20  
10.185
0
VERTEX
10    
23.643
20  
10.185
0
VERTEX
10    
23.655
20  
10.185
0
VERTEX
10    
23.673
20  
10.185
0
VERTEX
10    
23.688
20  
10.179
0
VERTEX
10    
23.704
20  
10.179
0
VERTEX
10    
23.714
20  
10.179
0
VERTEX
10    
23.725
20  
10.179
0
VERTEX
10    
23.739
20  
10.179
0
VERTEX
10    
23.763
20  
10.179
0
VERTEX
10    
23.772
20  
10.179
0
VERTEX
10    
23.774
20  
10.171
0
VERTEX
10    
23.774
20  
10.163
0
VERTEX
10    
23.774
20  
10.144
0
VERTEX
10    
23.774
20  
10.134
0
VERTEX
10    
23.774
20  
10.121
0
VERTEX
10    
23.774
20  
10.109
0
VERTEX
10    
23.774
20  
10.091
0
VERTEX
10    
23.774
20  
10.081
0
VERTEX
10    
23.779
20  
10.068
0
VERTEX
10    
23.779
20  
10.054
0
VERTEX
10    
23.779
20  
10.04
0
VERTEX
10    
23.779
20  
10.029
0
VERTEX
10    
23.779
20  
10.021
0
VERTEX
10    
23.774
20  
10.006
0
VERTEX
10    
23.765
20  
10.003
0
VERTEX
10    
23.767
20  
9.993
0
VERTEX
10    
23.767
20  
9.971
0
VERTEX
10    
23.767
20  
9.957
0
VERTEX
10    
23.756
20  
9.957
0
VERTEX
10    
23.738
20  
9.957
0
VERTEX
10    
23.73
20  
9.957
0
VERTEX
10    
23.71
20  
9.957
0
VERTEX
10    
23.699
20  
9.961
0
VERTEX
10    
23.688
20  
9.969
0
VERTEX
10    
23.679
20  
9.968
0
VERTEX
10    
23.665
20  
9.968
0
VERTEX
10    
23.651
20  
9.968
0
VERTEX
10    
23.636
20  
9.968
0
VERTEX
10    
23.618
20  
9.968
0
VERTEX
10    
23.604
20  
9.97
0
VERTEX
10    
23.588
20  
9.97
0
VERTEX
10    
23.573
20  
9.97
0
VERTEX
10    
23.558
20  
9.97
0
VERTEX
10    
23.54
20  
9.97
0
VERTEX
10    
23.529
20  
9.97
0
VERTEX
10    
23.513
20  
9.97
0
VERTEX
10    
23.502
20  
9.968
0
VERTEX
10    
23.489
20  
9.968
0
VERTEX
10    
23.467
20  
9.968
0
VERTEX
10    
23.448
20  
9.968
0
VERTEX
10    
23.436
20  
9.968
0
VERTEX
10    
23.423
20  
9.968
0
VERTEX
10    
23.412
20  
9.968
0
VERTEX
10    
23.4
20  
9.968
0
VERTEX
10    
23.393
20  
9.968
0
VERTEX
10    
23.378
20  
9.968
0
VERTEX
10    
23.368
20  
9.968
0
VERTEX
10    
23.351
20  
9.968
0
VERTEX
10    
23.338
20  
9.968
0
VERTEX
10    
23.325
20  
9.974
0
VERTEX
10    
23.325
20  
9.961
0
VERTEX
10    
23.315
20  
9.961
0
VERTEX
10    
23.315
20  
9.94
0
VERTEX
10    
23.315
20  
9.928
0
VERTEX
10    
23.315
20  
9.915
0
VERTEX
10    
23.315
20  
9.904
0
VERTEX
10    
23.315
20  
9.886
0
VERTEX
10    
23.315
20  
9.876
0
VERTEX
10    
23.315
20  
9.865
0
VERTEX
10    
23.315
20  
9.853
0
VERTEX
10    
23.31
20  
9.841
0
VERTEX
10    
23.31
20  
9.829
0
VERTEX
10    
23.31
20  
9.815
0
VERTEX
10    
23.31
20  
9.796
0
VERTEX
10    
23.31
20  
9.773
0
VERTEX
10    
23.31
20  
9.756
0
VERTEX
10    
23.31
20  
9.74
0
VERTEX
10    
23.31
20  
9.726
0
VERTEX
10    
23.298
20  
9.71
0
VERTEX
10    
23.298
20  
9.692
0
VERTEX
10    
23.298
20  
9.677
0
VERTEX
10    
23.298
20  
9.665
0
VERTEX
10    
23.298
20  
9.646
0
VERTEX
10    
23.298
20  
9.628
0
VERTEX
10    
23.298
20  
9.612
0
VERTEX
10    
23.298
20  
9.591
0
VERTEX
10    
23.298
20  
9.577
0
VERTEX
10    
23.298
20  
9.567
0
VERTEX
10    
23.298
20  
9.555
0
VERTEX
10    
23.304
20  
9.538
0
VERTEX
10    
23.304
20  
9.526
0
VERTEX
10    
23.31
20  
9.519
0
VERTEX
10    
23.321
20  
9.511
0
VERTEX
10    
23.343
20  
9.512
0
VERTEX
10    
23.357
20  
9.512
0
VERTEX
10    
23.367
20  
9.512
0
VERTEX
10    
23.388
20  
9.501
0
VERTEX
10    
23.421
20  
9.501
0
VERTEX
10    
23.436
20  
9.501
0
VERTEX
10    
23.446
20  
9.501
0
VERTEX
10    
23.463
20  
9.501
0
VERTEX
10    
23.472
20  
9.501
0
VERTEX
10    
23.484
20  
9.498
0
VERTEX
10    
23.498
20  
9.491
0
VERTEX
10    
23.51
20  
9.493
0
VERTEX
10    
23.523
20  
9.493
0
VERTEX
10    
23.54
20  
9.493
0
VERTEX
10    
23.552
20  
9.493
0
VERTEX
10    
23.56
20  
9.491
0
VERTEX
10    
23.58
20  
9.491
0
VERTEX
10    
23.588
20  
9.491
0
VERTEX
10    
23.597
20  
9.488
0
VERTEX
10    
23.611
20  
9.486
0
VERTEX
10    
23.616
20  
9.465
0
VERTEX
10    
23.616
20  
9.442
0
VERTEX
10    
23.616
20  
9.413
0
VERTEX
10    
23.626
20  
9.389
0
VERTEX
10    
23.626
20  
9.377
0
VERTEX
10    
23.626
20  
9.364
0
VERTEX
10    
23.626
20  
9.35
0
VERTEX
10    
23.626
20  
9.339
0
VERTEX
10    
23.626
20  
9.329
0
VERTEX
10    
23.626
20  
9.316
0
VERTEX
10    
23.626
20  
9.302
0
VERTEX
10    
23.626
20  
9.29
0
VERTEX
10    
23.628
20  
9.271
0
VERTEX
10    
23.628
20  
9.258
0
VERTEX
10    
23.628
20  
9.247
0
VERTEX
10    
23.628
20  
9.236
0
VERTEX
10    
23.628
20  
9.226
0
VERTEX
10    
23.619
20  
9.226
0
VERTEX
10    
23.609
20  
9.226
0
VERTEX
10    
23.595
20  
9.215
0
VERTEX
10    
23.583
20  
9.215
0
VERTEX
10    
23.572
20  
9.215
0
VERTEX
10    
23.561
20  
9.215
0
VERTEX
10    
23.548
20  
9.215
0
VERTEX
10    
23.536
20  
9.215
0
VERTEX
10    
23.523
20  
9.215
0
VERTEX
10    
23.51
20  
9.222
0
VERTEX
10    
23.499
20  
9.222
0
VERTEX
10    
23.485
20  
9.222
0
VERTEX
10    
23.473
20  
9.222
0
VERTEX
10    
23.462
20  
9.222
0
VERTEX
10    
23.446
20  
9.222
0
VERTEX
10    
23.426
20  
9.222
0
VERTEX
10    
23.409
20  
9.222
0
VERTEX
10    
23.397
20  
9.222
0
VERTEX
10    
23.388
20  
9.222
0
VERTEX
10    
23.377
20  
9.216
0
VERTEX
10    
23.365
20  
9.216
0
VERTEX
10    
23.348
20  
9.216
0
VERTEX
10    
23.334
20  
9.216
0
VERTEX
10    
23.319
20  
9.216
0
VERTEX
10    
23.309
20  
9.216
0
VERTEX
10    
23.295
20  
9.216
0
VERTEX
10    
23.295
20  
9.205
0
VERTEX
10    
23.295
20  
9.186
0
VERTEX
10    
23.295
20  
9.177
0
VERTEX
10    
23.295
20  
9.154
0
VERTEX
10    
23.295
20  
9.144
0
VERTEX
10    
23.295
20  
9.13
0
VERTEX
10    
23.295
20  
9.116
0
VERTEX
10    
23.295
20  
9.104
0
VERTEX
10    
23.295
20  
9.091
0
VERTEX
10    
23.295
20  
9.076
0
VERTEX
10    
23.295
20  
9.058
0
VERTEX
10    
23.295
20  
9.037
0
VERTEX
10    
23.295
20  
9.025
0
VERTEX
10    
23.295
20  
9.013
0
VERTEX
10    
23.295
20  
8.998
0
VERTEX
10    
23.295
20  
8.97
0
VERTEX
10    
23.295
20  
8.957
0
VERTEX
10    
23.284
20  
8.938
0
VERTEX
10    
23.284
20  
8.924
0
VERTEX
10    
23.284
20  
8.91
0
VERTEX
10    
23.284
20  
8.895
0
VERTEX
10    
23.284
20  
8.883
0
VERTEX
10    
23.284
20  
8.87
0
VERTEX
10    
23.284
20  
8.861
0
VERTEX
10    
23.284
20  
8.837
0
VERTEX
10    
23.284
20  
8.826
0
VERTEX
10    
23.284
20  
8.811
0
VERTEX
10    
23.275
20  
8.795
0
VERTEX
10    
23.275
20  
8.776
0
VERTEX
10    
23.275
20  
8.765
0
VERTEX
10    
23.264
20  
8.752
0
VERTEX
10    
23.28
20  
8.749
0
VERTEX
10    
23.288
20  
8.749
0
VERTEX
10    
23.304
20  
8.749
0
VERTEX
10    
23.317
20  
8.749
0
VERTEX
10    
23.333
20  
8.749
0
VERTEX
10    
23.354
20  
8.749
0
VERTEX
10    
23.418
20  
8.749
0
VERTEX
10    
23.44
20  
8.749
0
VERTEX
10    
23.458
20  
8.749
0
VERTEX
10    
23.468
20  
8.749
0
VERTEX
10    
23.479
20  
8.749
0
VERTEX
10    
23.491
20  
8.749
0
VERTEX
10    
23.504
20  
8.749
0
VERTEX
10    
23.515
20  
8.749
0
VERTEX
10    
23.528
20  
8.75
0
VERTEX
10    
23.541
20  
8.752
0
VERTEX
10    
23.556
20  
8.752
0
VERTEX
10    
23.567
20  
8.752
0
VERTEX
10    
23.581
20  
8.752
0
VERTEX
10    
23.591
20  
8.752
0
VERTEX
10    
23.6
20  
8.75
0
VERTEX
10    
23.617
20  
8.748
0
VERTEX
10    
23.627
20  
8.748
0
VERTEX
10    
23.64
20  
8.748
0
VERTEX
10    
23.656
20  
8.748
0
VERTEX
10    
23.67
20  
8.744
0
VERTEX
10    
23.68
20  
8.744
0
VERTEX
10    
23.691
20  
8.744
0
VERTEX
10    
23.701
20  
8.744
0
VERTEX
10    
23.711
20  
8.744
0
VERTEX
10    
23.714
20  
8.736
0
VERTEX
10    
23.714
20  
8.726
0
VERTEX
10    
23.714
20  
8.706
0
VERTEX
10    
23.714
20  
8.699
0
VERTEX
10    
23.714
20  
8.683
0
VERTEX
10    
23.714
20  
8.668
0
VERTEX
10    
23.714
20  
8.651
0
VERTEX
10    
23.71
20  
8.64
0
VERTEX
10    
23.702
20  
8.611
0
VERTEX
10    
23.703
20  
8.59
0
VERTEX
10    
23.703
20  
8.577
0
VERTEX
10    
23.703
20  
8.565
0
VERTEX
10    
23.703
20  
8.551
0
VERTEX
10    
23.697
20  
8.533
0
VERTEX
10    
23.697
20  
8.521
0
VERTEX
10    
23.697
20  
8.509
0
VERTEX
10    
23.697
20  
8.496
0
VERTEX
10    
23.697
20  
8.484
0
VERTEX
10    
23.693
20  
8.475
0
VERTEX
10    
23.679
20  
8.475
0
VERTEX
10    
23.671
20  
8.468
0
VERTEX
10    
23.647
20  
8.453
0
VERTEX
10    
23.625
20  
8.455
0
VERTEX
10    
23.609
20  
8.455
0
VERTEX
10    
23.595
20  
8.455
0
VERTEX
10    
23.582
20  
8.455
0
VERTEX
10    
23.575
20  
8.455
0
VERTEX
10    
23.558
20  
8.455
0
VERTEX
10    
23.541
20  
8.455
0
VERTEX
10    
23.521
20  
8.455
0
VERTEX
10    
23.514
20  
8.455
0
VERTEX
10    
23.491
20  
8.455
0
VERTEX
10    
23.472
20  
8.459
0
VERTEX
10    
23.461
20  
8.467
0
VERTEX
10    
23.443
20  
8.466
0
VERTEX
10    
23.422
20  
8.466
0
VERTEX
10    
23.366
20  
8.466
0
VERTEX
10    
23.354
20  
8.466
0
VERTEX
10    
23.332
20  
8.466
0
VERTEX
10    
23.31
20  
8.466
0
VERTEX
10    
23.285
20  
8.466
0
VERTEX
10    
23.273
20  
8.466
0
VERTEX
10    
23.259
20  
8.466
0
VERTEX
10    
23.238
20  
8.466
0
VERTEX
10    
23.222
20  
8.466
0
VERTEX
10    
23.207
20  
8.466
0
VERTEX
10    
23.184
20  
8.466
0
VERTEX
10    
23.164
20  
8.466
0
VERTEX
10    
23.154
20  
8.466
0
VERTEX
10    
23.142
20  
8.466
0
VERTEX
10    
23.131
20  
8.467
0
VERTEX
10    
23.12
20  
8.47
0
VERTEX
10    
23.104
20  
8.469
0
VERTEX
10    
23.089
20  
8.469
0
VERTEX
10    
23.076
20  
8.469
0
VERTEX
10    
23.064
20  
8.469
0
VERTEX
10    
23.052
20  
8.469
0
VERTEX
10    
23.042
20  
8.469
0
VERTEX
10    
23.031
20  
8.469
0
VERTEX
10    
23.014
20  
8.469
0
VERTEX
10    
22.993
20  
8.467
0
VERTEX
10    
22.989
20  
8.478
0
VERTEX
10    
22.989
20  
8.492
0
VERTEX
10    
23.001
20  
8.492
0
VERTEX
10    
23.001
20  
8.503
0
VERTEX
10    
23.001
20  
8.515
0
VERTEX
10    
23.001
20  
8.538
0
VERTEX
10    
23.001
20  
8.559
0
VERTEX
10    
23.001
20  
8.573
0
VERTEX
10    
23.013
20  
8.589
0
VERTEX
10    
23.013
20  
8.603
0
VERTEX
10    
23.013
20  
8.621
0
VERTEX
10    
23.013
20  
8.638
0
VERTEX
10    
23.013
20  
8.651
0
VERTEX
10    
23.013
20  
8.667
0
VERTEX
10    
23.013
20  
8.679
0
VERTEX
10    
23.013
20  
8.693
0
VERTEX
10    
23.013
20  
8.706
0
VERTEX
10    
23.013
20  
8.719
0
VERTEX
10    
23.017
20  
8.731
0
VERTEX
10    
23.017
20  
8.746
0
VERTEX
10    
23.017
20  
8.758
0
VERTEX
10    
23.017
20  
8.774
0
VERTEX
10    
23.017
20  
8.789
0
VERTEX
10    
23.017
20  
8.801
0
VERTEX
10    
23.017
20  
8.814
0
VERTEX
10    
23.017
20  
8.832
0
VERTEX
10    
23.017
20  
8.842
0
VERTEX
10    
23.017
20  
8.863
0
VERTEX
10    
23.017
20  
8.88
0
VERTEX
10    
23.017
20  
8.891
0
VERTEX
10    
23.017
20  
8.904
0
VERTEX
10    
23.017
20  
8.915
0
VERTEX
10    
23.017
20  
8.928
0
VERTEX
10    
23.017
20  
8.944
0
VERTEX
10    
23.017
20  
8.962
0
VERTEX
10    
23.017
20  
8.989
0
VERTEX
10    
23.017
20  
9.01
0
VERTEX
10    
23.011
20  
9.028
0
VERTEX
10    
23.011
20  
9.044
0
VERTEX
10    
23.011
20  
9.064
0
VERTEX
10    
23.011
20  
9.084
0
VERTEX
10    
23.011
20  
9.103
0
VERTEX
10    
23.011
20  
9.118
0
VERTEX
10    
23.011
20  
9.133
0
VERTEX
10    
23.011
20  
9.154
0
VERTEX
10    
23.011
20  
9.166
0
VERTEX
10    
23.007
20  
9.178
0
VERTEX
10    
23.007
20  
9.189
0
VERTEX
10    
23.007
20  
9.197
0
VERTEX
10    
23.007
20  
9.211
0
VERTEX
10    
23.007
20  
9.232
0
VERTEX
10    
23.007
20  
9.245
0
VERTEX
10    
23.007
20  
9.257
0
VERTEX
10    
23.007
20  
9.276
0
VERTEX
10    
23.007
20  
9.297
0
VERTEX
10    
23.007
20  
9.324
0
VERTEX
10    
23.007
20  
9.35
0
VERTEX
10    
23.007
20  
9.373
0
VERTEX
10    
23.007
20  
9.405
0
VERTEX
10    
22.992
20  
9.464
0
VERTEX
10    
22.993
20  
9.482
0
VERTEX
10    
22.993
20  
9.503
0
VERTEX
10    
22.993
20  
9.523
0
VERTEX
10    
22.993
20  
9.544
0
VERTEX
10    
22.993
20  
9.563
0
VERTEX
10    
22.993
20  
9.579
0
VERTEX
10    
22.993
20  
9.593
0
VERTEX
10    
22.993
20  
9.608
0
VERTEX
10    
22.993
20  
9.621
0
VERTEX
10    
23.001
20  
9.636
0
VERTEX
10    
23.015
20  
9.651
0
VERTEX
10    
23.013
20  
9.662
0
VERTEX
10    
23.013
20  
9.676
0
VERTEX
10    
23.018
20  
9.697
0
VERTEX
10    
23.034
20  
9.727
0
VERTEX
10    
23.04
20  
9.765
0
VERTEX
10    
23.044
20  
9.795
0
VERTEX
10    
23.052
20  
9.831
0
VERTEX
10    
23.052
20  
9.851
0
VERTEX
10    
23.052
20  
9.866
0
VERTEX
10    
23.065
20  
9.885
0
VERTEX
10    
23.065
20  
9.907
0
VERTEX
10    
23.065
20  
9.923
0
VERTEX
10    
23.065
20  
9.938
0
VERTEX
10    
23.065
20  
9.951
0
VERTEX
10    
23.065
20  
9.964
0
VERTEX
10    
23.065
20  
9.972
0
VERTEX
10    
23.065
20  
9.988
0
VERTEX
10    
23.065
20  
10.003
0
VERTEX
10    
23.072
20  
10.003
0
VERTEX
10    
23.072
20  
10.018
0
VERTEX
10    
23.072
20  
10.035
0
VERTEX
10    
23.072
20  
10.049
0
VERTEX
10    
23.072
20  
10.064
0
VERTEX
10    
23.072
20  
10.08
0
VERTEX
10    
23.063
20  
10.093
0
VERTEX
10    
23.063
20  
10.104
0
VERTEX
10    
23.063
20  
10.123
0
VERTEX
10    
23.063
20  
10.141
0
VERTEX
10    
23.052
20  
10.141
0
VERTEX
10    
23.052
20  
10.154
0
VERTEX
10    
23.052
20  
10.173
0
VERTEX
10    
23.052
20  
10.185
0
VERTEX
10    
23.052
20  
10.195
0
VERTEX
10    
23.06
20  
10.205
0
VERTEX
10    
23.076
20  
10.205
0
VERTEX
10    
23.09
20  
10.205
0
VERTEX
10    
23.102
20  
10.205
0
VERTEX
10    
23.115
20  
10.217
0
VERTEX
10    
23.129
20  
10.217
0
VERTEX
10    
23.143
20  
10.217
0
VERTEX
10    
23.158
20  
10.217
0
VERTEX
10    
23.171
20  
10.217
0
VERTEX
10    
23.184
20  
10.217
0
VERTEX
10    
23.197
20  
10.217
0
VERTEX
10    
23.221
20  
10.213
0
VERTEX
10    
23.239
20  
10.204
0
VERTEX
10    
23.254
20  
10.205
0
VERTEX
10    
23.272
20  
10.205
0
VERTEX
10    
23.3
20  
10.205
0
VERTEX
10    
23.345
20  
10.205
0
VERTEX
10    
23.379
20  
10.205
0
VERTEX
10    
23.436
20  
10.201
0
VERTEX
10    
23.46
20  
10.193
0
VERTEX
10    
23.468
20  
10.195
0
VERTEX
10    
23.472
20  
10.187
0     
SEQEND
0 
POLYLINE
8     
PlasmaCutterPath
70  
0  
6 
Continuous
40    
0.1
41 
0.1   
43
0.1
0
VERTEX
10    
15.918
20  
8.058
0
VERTEX
10    
15.909
20  
8.058
0
VERTEX
10    
15.921
20  
8.064
0
VERTEX
10    
15.94
20  
8.064
0
VERTEX
10    
15.964
20  
8.064
0
VERTEX
10    
15.987
20  
8.064
0
VERTEX
10    
16.002
20  
8.064
0
VERTEX
10    
16.017
20  
8.064
0
VERTEX
10    
16.035
20  
8.064
0
VERTEX
10    
16.051
20  
8.064
0
VERTEX
10    
16.069
20  
8.064
0
VERTEX
10    
16.08
20  
8.064
0
VERTEX
10    
16.094
20  
8.06
0
VERTEX
10    
16.106
20  
8.06
0
VERTEX
10    
16.117
20  
8.06
0
VERTEX
10    
16.127
20  
8.06
0
VERTEX
10    
16.138
20  
8.06
0
VERTEX
10    
16.145
20  
8.06
0
VERTEX
10    
16.166
20  
8.058
0
VERTEX
10    
16.182
20  
8.059
0
VERTEX
10    
16.197
20  
8.059
0
VERTEX
10    
16.207
20  
8.059
0
VERTEX
10    
16.217
20  
8.059
0
VERTEX
10    
16.227
20  
8.059
0
VERTEX
10    
16.243
20  
8.059
0
VERTEX
10    
16.254
20  
8.059
0
VERTEX
10    
16.268
20  
8.059
0
VERTEX
10    
16.279
20  
8.059
0
VERTEX
10    
16.29
20  
8.06
0
VERTEX
10    
16.293
20  
8.05
0
VERTEX
10    
16.303
20  
8.032
0
VERTEX
10    
16.303
20  
8.015
0
VERTEX
10    
16.303
20  
8
0
VERTEX
10    
16.303
20  
7.983
0
VERTEX
10    
16.303
20  
7.965
0
VERTEX
10    
16.313
20  
7.965
0
VERTEX
10    
16.313
20  
7.95
0
VERTEX
10    
16.313
20  
7.933
0
VERTEX
10    
16.313
20  
7.917
0
VERTEX
10    
16.313
20  
7.9
0
VERTEX
10    
16.313
20  
7.888
0
VERTEX
10    
16.313
20  
7.869
0
VERTEX
10    
16.313
20  
7.857
0
VERTEX
10    
16.313
20  
7.849
0
VERTEX
10    
16.313
20  
7.831
0
VERTEX
10    
16.313
20  
7.815
0
VERTEX
10    
16.307
20  
7.805
0
VERTEX
10    
16.307
20  
7.793
0
VERTEX
10    
16.282
20  
7.793
0
VERTEX
10    
16.269
20  
7.793
0
VERTEX
10    
16.262
20  
7.793
0
VERTEX
10    
16.242
20  
7.793
0
VERTEX
10    
16.227
20  
7.793
0
VERTEX
10    
16.204
20  
7.793
0
VERTEX
10    
16.181
20  
7.793
0
VERTEX
10    
16.167
20  
7.793
0
VERTEX
10    
16.155
20  
7.793
0
VERTEX
10    
16.14
20  
7.793
0
VERTEX
10    
16.124
20  
7.793
0
VERTEX
10    
16.106
20  
7.793
0
VERTEX
10    
16.093
20  
7.793
0
VERTEX
10    
16.082
20  
7.793
0
VERTEX
10    
16.069
20  
7.793
0
VERTEX
10    
16.056
20  
7.793
0
VERTEX
10    
16.042
20  
7.793
0
VERTEX
10    
16.03
20  
7.793
0
VERTEX
10    
16.02
20  
7.793
0
VERTEX
10    
16.008
20  
7.793
0
VERTEX
10    
16
20  
7.793
0
VERTEX
10    
15.984
20  
7.788
0
VERTEX
10    
15.97
20  
7.788
0
VERTEX
10    
15.957
20  
7.788
0
VERTEX
10    
15.943
20  
7.788
0
VERTEX
10    
15.928
20  
7.788
0
VERTEX
10    
15.917
20  
7.798
0
VERTEX
10    
15.902
20  
7.798
0
VERTEX
10    
15.888
20  
7.798
0
VERTEX
10    
15.888
20  
7.785
0
VERTEX
10    
15.876
20  
7.785
0
VERTEX
10    
15.876
20  
7.766
0
VERTEX
10    
15.876
20  
7.751
0
VERTEX
10    
15.865
20  
7.751
0
VERTEX
10    
15.865
20  
7.73
0
VERTEX
10    
15.865
20  
7.717
0
VERTEX
10    
15.865
20  
7.704
0
VERTEX
10    
15.865
20  
7.689
0
VERTEX
10    
15.865
20  
7.676
0
VERTEX
10    
15.865
20  
7.661
0
VERTEX
10    
15.865
20  
7.648
0
VERTEX
10    
15.865
20  
7.635
0
VERTEX
10    
15.865
20  
7.622
0
VERTEX
10    
15.865
20  
7.615
0
VERTEX
10    
15.865
20  
7.6
0
VERTEX
10    
15.865
20  
7.584
0
VERTEX
10    
15.865
20  
7.573
0
VERTEX
10    
15.865
20  
7.56
0
VERTEX
10    
15.865
20  
7.547
0
VERTEX
10    
15.865
20  
7.536
0
VERTEX
10    
15.865
20  
7.526
0
VERTEX
10    
15.865
20  
7.514
0
VERTEX
10    
15.865
20  
7.504
0
VERTEX
10    
15.857
20  
7.504
0
VERTEX
10    
15.857
20  
7.487
0
VERTEX
10    
15.857
20  
7.476
0
VERTEX
10    
15.857
20  
7.463
0
VERTEX
10    
15.857
20  
7.446
0
VERTEX
10    
15.857
20  
7.438
0
VERTEX
10    
15.857
20  
7.423
0
VERTEX
10    
15.857
20  
7.404
0
VERTEX
10    
15.857
20  
7.393
0
VERTEX
10    
15.868
20  
7.393
0
VERTEX
10    
15.868
20  
7.377
0
VERTEX
10    
15.868
20  
7.366
0
VERTEX
10    
15.868
20  
7.352
0
VERTEX
10    
15.878
20  
7.346
0
VERTEX
10    
15.892
20  
7.346
0
VERTEX
10    
15.906
20  
7.346
0
VERTEX
10    
15.922
20  
7.346
0
VERTEX
10    
15.933
20  
7.346
0
VERTEX
10    
15.944
20  
7.346
0
VERTEX
10    
15.956
20  
7.346
0
VERTEX
10    
15.974
20  
7.346
0
VERTEX
10    
15.985
20  
7.346
0
VERTEX
10    
15.993
20  
7.347
0
VERTEX
10    
16.009
20  
7.35
0
VERTEX
10    
16.021
20  
7.35
0
VERTEX
10    
16.032
20  
7.35
0
VERTEX
10    
16.046
20  
7.35
0
VERTEX
10    
16.057
20  
7.35
0
VERTEX
10    
16.074
20  
7.35
0
VERTEX
10    
16.091
20  
7.34
0
VERTEX
10    
16.105
20  
7.34
0
VERTEX
10    
16.119
20  
7.34
0
VERTEX
10    
16.13
20  
7.34
0
VERTEX
10    
16.13
20  
7.331
0
VERTEX
10    
16.143
20  
7.331
0
VERTEX
10    
16.154
20  
7.331
0
VERTEX
10    
16.168
20  
7.319
0
VERTEX
10    
16.181
20  
7.319
0
VERTEX
10    
16.181
20  
7.307
0
VERTEX
10    
16.181
20  
7.29
0
VERTEX
10    
16.17
20  
7.29
0
VERTEX
10    
16.17
20  
7.271
0
VERTEX
10    
16.17
20  
7.254
0
VERTEX
10    
16.17
20  
7.24
0
VERTEX
10    
16.158
20  
7.24
0
VERTEX
10    
16.158
20  
7.223
0
VERTEX
10    
16.158
20  
7.209
0
VERTEX
10    
16.158
20  
7.193
0
VERTEX
10    
16.158
20  
7.18
0
VERTEX
10    
16.158
20  
7.167
0
VERTEX
10    
16.158
20  
7.157
0
VERTEX
10    
16.158
20  
7.145
0
VERTEX
10    
16.158
20  
7.134
0
VERTEX
10    
16.147
20  
7.134
0
VERTEX
10    
16.147
20  
7.12
0
VERTEX
10    
16.147
20  
7.107
0
VERTEX
10    
16.136
20  
7.107
0
VERTEX
10    
16.136
20  
7.096
0
VERTEX
10    
16.124
20  
7.096
0
VERTEX
10    
16.112
20  
7.096
0
VERTEX
10    
16.096
20  
7.096
0
VERTEX
10    
16.079
20  
7.096
0
VERTEX
10    
16.063
20  
7.096
0
VERTEX
10    
16.05
20  
7.096
0
VERTEX
10    
16.039
20  
7.094
0
VERTEX
10    
16.024
20  
7.094
0
VERTEX
10    
16.009
20  
7.094
0
VERTEX
10    
15.993
20  
7.094
0
VERTEX
10    
15.983
20  
7.094
0
VERTEX
10    
15.983
20  
7.085
0
VERTEX
10    
15.972
20  
7.085
0
VERTEX
10    
15.956
20  
7.085
0
VERTEX
10    
15.944
20  
7.085
0
VERTEX
10    
15.933
20  
7.085
0
VERTEX
10    
15.921
20  
7.085
0
VERTEX
10    
15.906
20  
7.085
0
VERTEX
10    
15.906
20  
7.077
0
VERTEX
10    
15.896
20  
7.077
0
VERTEX
10    
15.885
20  
7.077
0
VERTEX
10    
15.874
20  
7.077
0
VERTEX
10    
15.864
20  
7.077
0
VERTEX
10    
15.852
20  
7.077
0
VERTEX
10    
15.852
20  
7.066
0
VERTEX
10    
15.852
20  
7.047
0
VERTEX
10    
15.852
20  
7.023
0
VERTEX
10    
15.852
20  
7.003
0
VERTEX
10    
15.852
20  
6.984
0
VERTEX
10    
15.852
20  
6.961
0
VERTEX
10    
15.852
20  
6.94
0
VERTEX
10    
15.852
20  
6.928
0
VERTEX
10    
15.852
20  
6.914
0
VERTEX
10    
15.852
20  
6.898
0
VERTEX
10    
15.852
20  
6.879
0
VERTEX
10    
15.852
20  
6.86
0
VERTEX
10    
15.844
20  
6.846
0
VERTEX
10    
15.844
20  
6.835
0
VERTEX
10    
15.844
20  
6.824
0
VERTEX
10    
15.844
20  
6.807
0
VERTEX
10    
15.844
20  
6.79
0
VERTEX
10    
15.843
20  
6.776
0
VERTEX
10    
15.843
20  
6.764
0
VERTEX
10    
15.843
20  
6.752
0
VERTEX
10    
15.843
20  
6.738
0
VERTEX
10    
15.843
20  
6.727
0
VERTEX
10    
15.843
20  
6.715
0
VERTEX
10    
15.837
20  
6.703
0
VERTEX
10    
15.837
20  
6.689
0
VERTEX
10    
15.837
20  
6.68
0
VERTEX
10    
15.837
20  
6.655
0
VERTEX
10    
15.837
20  
6.635
0
VERTEX
10    
15.837
20  
6.616
0
VERTEX
10    
15.837
20  
6.604
0
VERTEX
10    
15.837
20  
6.593
0
VERTEX
10    
15.846
20  
6.59
0
VERTEX
10    
15.863
20  
6.59
0
VERTEX
10    
15.878
20  
6.59
0
VERTEX
10    
15.897
20  
6.59
0
VERTEX
10    
15.91
20  
6.59
0
VERTEX
10    
15.922
20  
6.59
0
VERTEX
10    
15.934
20  
6.59
0
VERTEX
10    
15.947
20  
6.594
0
VERTEX
10    
15.951
20  
6.601
0
VERTEX
10    
15.963
20  
6.6
0
VERTEX
10    
15.977
20  
6.6
0
VERTEX
10    
15.995
20  
6.6
0
VERTEX
10    
16.005
20  
6.59
0
VERTEX
10    
16.021
20  
6.59
0
VERTEX
10    
16.039
20  
6.577
0
VERTEX
10    
16.051
20  
6.577
0
VERTEX
10    
16.062
20  
6.577
0
VERTEX
10    
16.075
20  
6.565
0
VERTEX
10    
16.088
20  
6.565
0
VERTEX
10    
16.103
20  
6.565
0
VERTEX
10    
16.117
20  
6.565
0
VERTEX
10    
16.127
20  
6.565
0
VERTEX
10    
16.136
20  
6.565
0
VERTEX
10    
16.153
20  
6.565
0
VERTEX
10    
16.165
20  
6.56
0
VERTEX
10    
16.174
20  
6.56
0
VERTEX
10    
16.199
20  
6.56
0
VERTEX
10    
16.22
20  
6.56
0
VERTEX
10    
16.237
20  
6.56
0
VERTEX
10    
16.246
20  
6.56
0
VERTEX
10    
16.26
20  
6.564
0
VERTEX
10    
16.272
20  
6.571
0
VERTEX
10    
16.286
20  
6.57
0
VERTEX
10    
16.296
20  
6.57
0
VERTEX
10    
16.305
20  
6.57
0
VERTEX
10    
16.313
20  
6.57
0
VERTEX
10    
16.313
20  
6.555
0
VERTEX
10    
16.316
20  
6.541
0
VERTEX
10    
16.316
20  
6.533
0
VERTEX
10    
16.316
20  
6.518
0
VERTEX
10    
16.316
20  
6.504
0
VERTEX
10    
16.316
20  
6.495
0
VERTEX
10    
16.316
20  
6.474
0
VERTEX
10    
16.312
20  
6.463
0
VERTEX
10    
16.304
20  
6.45
0
VERTEX
10    
16.305
20  
6.437
0
VERTEX
10    
16.305
20  
6.427
0
VERTEX
10    
16.305
20  
6.417
0
VERTEX
10    
16.305
20  
6.405
0
VERTEX
10    
16.305
20  
6.39
0
VERTEX
10    
16.305
20  
6.38
0
VERTEX
10    
16.305
20  
6.367
0
VERTEX
10    
16.304
20  
6.356
0
VERTEX
10    
16.304
20  
6.344
0
VERTEX
10    
16.304
20  
6.333
0
VERTEX
10    
16.294
20  
6.333
0
VERTEX
10    
16.294
20  
6.321
0
VERTEX
10    
16.281
20  
6.321
0
VERTEX
10    
16.269
20  
6.321
0
VERTEX
10    
16.258
20  
6.321
0
VERTEX
10    
16.243
20  
6.321
0
VERTEX
10    
16.226
20  
6.321
0
VERTEX
10    
16.226
20  
6.311
0
VERTEX
10    
16.211
20  
6.311
0
VERTEX
10    
16.185
20  
6.311
0
VERTEX
10    
16.168
20  
6.311
0
VERTEX
10    
16.161
20  
6.311
0
VERTEX
10    
16.146
20  
6.311
0
VERTEX
10    
16.131
20  
6.311
0
VERTEX
10    
16.116
20  
6.311
0
VERTEX
10    
16.101
20  
6.311
0
VERTEX
10    
16.09
20  
6.311
0
VERTEX
10    
16.083
20  
6.309
0
VERTEX
10    
16.067
20  
6.306
0
VERTEX
10    
16.054
20  
6.307
0
VERTEX
10    
16.041
20  
6.307
0
VERTEX
10    
16.026
20  
6.307
0
VERTEX
10    
16.014
20  
6.307
0
VERTEX
10    
15.996
20  
6.307
0
VERTEX
10    
15.982
20  
6.307
0
VERTEX
10    
15.969
20  
6.307
0
VERTEX
10    
15.952
20  
6.317
0
VERTEX
10    
15.93
20  
6.317
0
VERTEX
10    
15.918
20  
6.317
0
VERTEX
10    
15.906
20  
6.317
0
VERTEX
10    
15.894
20  
6.317
0
VERTEX
10    
15.88
20  
6.317
0
VERTEX
10    
15.861
20  
6.317
0
VERTEX
10    
15.844
20  
6.317
0
VERTEX
10    
15.833
20  
6.317
0
VERTEX
10    
15.821
20  
6.317
0
VERTEX
10    
15.809
20  
6.322
0
VERTEX
10    
15.779
20  
6.322
0
VERTEX
10    
15.763
20  
6.322
0
VERTEX
10    
15.738
20  
6.322
0
VERTEX
10    
15.715
20  
6.322
0
VERTEX
10    
15.693
20  
6.322
0
VERTEX
10    
15.68
20  
6.322
0
VERTEX
10    
15.67
20  
6.322
0
VERTEX
10    
15.658
20  
6.322
0
VERTEX
10    
15.647
20  
6.322
0
VERTEX
10    
15.627
20  
6.322
0
VERTEX
10    
15.616
20  
6.322
0
VERTEX
10    
15.6
20  
6.322
0
VERTEX
10    
15.586
20  
6.322
0
VERTEX
10    
15.573
20  
6.322
0
VERTEX
10    
15.561
20  
6.322
0
VERTEX
10    
15.561
20  
6.335
0
VERTEX
10    
15.561
20  
6.346
0
VERTEX
10    
15.561
20  
6.358
0
VERTEX
10    
15.561
20  
6.37
0
VERTEX
10    
15.561
20  
6.383
0
VERTEX
10    
15.571
20  
6.402
0
VERTEX
10    
15.571
20  
6.419
0
VERTEX
10    
15.571
20  
6.435
0
VERTEX
10    
15.571
20  
6.448
0
VERTEX
10    
15.571
20  
6.46
0
VERTEX
10    
15.567
20  
6.489
0
VERTEX
10    
15.558
20  
6.501
0
VERTEX
10    
15.56
20  
6.517
0
VERTEX
10    
15.56
20  
6.534
0
VERTEX
10    
15.555
20  
6.557
0
VERTEX
10    
15.546
20  
6.581
0
VERTEX
10    
15.548
20  
6.605
0
VERTEX
10    
15.548
20  
6.638
0
VERTEX
10    
15.548
20  
6.665
0
VERTEX
10    
15.548
20  
6.689
0
VERTEX
10    
15.548
20  
6.708
0
VERTEX
10    
15.548
20  
6.729
0
VERTEX
10    
15.548
20  
6.746
0
VERTEX
10    
15.548
20  
6.764
0
VERTEX
10    
15.54
20  
6.785
0
VERTEX
10    
15.54
20  
6.802
0
VERTEX
10    
15.54
20  
6.822
0
VERTEX
10    
15.54
20  
6.841
0
VERTEX
10    
15.54
20  
6.857
0
VERTEX
10    
15.54
20  
6.875
0
VERTEX
10    
15.54
20  
6.904
0
VERTEX
10    
15.54
20  
6.928
0
VERTEX
10    
15.54
20  
6.95
0
VERTEX
10    
15.54
20  
6.978
0
VERTEX
10    
15.54
20  
7.012
0
VERTEX
10    
15.54
20  
7.046
0
VERTEX
10    
15.545
20  
7.071
0
VERTEX
10    
15.545
20  
7.093
0
VERTEX
10    
15.545
20  
7.117
0
VERTEX
10    
15.545
20  
7.141
0
VERTEX
10    
15.545
20  
7.157
0
VERTEX
10    
15.545
20  
7.173
0
VERTEX
10    
15.545
20  
7.188
0
VERTEX
10    
15.545
20  
7.208
0
VERTEX
10    
15.545
20  
7.222
0
VERTEX
10    
15.545
20  
7.238
0
VERTEX
10    
15.545
20  
7.253
0
VERTEX
10    
15.545
20  
7.268
0
VERTEX
10    
15.545
20  
7.285
0
VERTEX
10    
15.545
20  
7.305
0
VERTEX
10    
15.55
20  
7.328
0
VERTEX
10    
15.55
20  
7.35
0
VERTEX
10    
15.55
20  
7.374
0
VERTEX
10    
15.55
20  
7.4
0
VERTEX
10    
15.55
20  
7.427
0
VERTEX
10    
15.55
20  
7.451
0
VERTEX
10    
15.55
20  
7.476
0
VERTEX
10    
15.562
20  
7.498
0
VERTEX
10    
15.562
20  
7.523
0
VERTEX
10    
15.562
20  
7.544
0
VERTEX
10    
15.562
20  
7.553
0
VERTEX
10    
15.562
20  
7.574
0
VERTEX
10    
15.562
20  
7.586
0
VERTEX
10    
15.562
20  
7.604
0
VERTEX
10    
15.562
20  
7.63
0
VERTEX
10    
15.562
20  
7.645
0
VERTEX
10    
15.569
20  
7.66
0
VERTEX
10    
15.569
20  
7.675
0
VERTEX
10    
15.569
20  
7.692
0
VERTEX
10    
15.569
20  
7.708
0
VERTEX
10    
15.569
20  
7.726
0
VERTEX
10    
15.569
20  
7.748
0
VERTEX
10    
15.569
20  
7.767
0
VERTEX
10    
15.569
20  
7.787
0
VERTEX
10    
15.569
20  
7.811
0
VERTEX
10    
15.569
20  
7.839
0
VERTEX
10    
15.569
20  
7.857
0
VERTEX
10    
15.569
20  
7.88
0
VERTEX
10    
15.562
20  
7.898
0
VERTEX
10    
15.562
20  
7.915
0
VERTEX
10    
15.562
20  
7.931
0
VERTEX
10    
15.562
20  
7.944
0
VERTEX
10    
15.562
20  
7.957
0
VERTEX
10    
15.562
20  
7.971
0
VERTEX
10    
15.562
20  
7.983
0
VERTEX
10    
15.562
20  
7.99
0
VERTEX
10    
15.573
20  
8.002
0
VERTEX
10    
15.573
20  
8.018
0
VERTEX
10    
15.573
20  
8.034
0
VERTEX
10    
15.573
20  
8.045
0
VERTEX
10    
15.573
20  
8.059
0
VERTEX
10    
15.562
20  
8.074
0
VERTEX
10    
15.562
20  
8.084
0
VERTEX
10    
15.58
20  
8.084
0
VERTEX
10    
15.593
20  
8.084
0
VERTEX
10    
15.604
20  
8.084
0
VERTEX
10    
15.62
20  
8.084
0
VERTEX
10    
15.639
20  
8.084
0
VERTEX
10    
15.66
20  
8.084
0
VERTEX
10    
15.687
20  
8.09
0
VERTEX
10    
15.715
20  
8.09
0
VERTEX
10    
15.737
20  
8.09
0
VERTEX
10    
15.773
20  
8.09
0
VERTEX
10    
15.829
20  
8.09
0
VERTEX
10    
15.858
20  
8.09
0
VERTEX
10    
15.88
20  
8.09
0
VERTEX
10    
15.895
20  
8.09
0
VERTEX
10    
15.91
20  
8.09
0
VERTEX
10    
15.925
20  
8.094
0
VERTEX
10    
15.945
20  
8.101
0
VERTEX
10    
15.965
20  
8.1
0
VERTEX
10    
15.98
20  
8.105
0
VERTEX
10    
15.994
20  
8.114
0
VERTEX
10    
16.004
20  
8.113
0
VERTEX
10    
16.017
20  
8.113
0
VERTEX
10    
16.028
20  
8.113
0
VERTEX
10    
16.038
20  
8.113
0
VERTEX
10    
16.05
20  
8.113
0
VERTEX
10    
16.069
20  
8.113
0
VERTEX
10    
16.086
20  
8.117
0
VERTEX
10    
16.117
20  
8.125
0
VERTEX
10    
16.153
20  
8.123
0
VERTEX
10    
16.182
20  
8.123
0
VERTEX
10    
16.192
20  
8.123
0
VERTEX
10    
16.206
20  
8.123
0
VERTEX
10    
16.218
20  
8.123
0
VERTEX
10    
16.237
20  
8.123
0
VERTEX
10    
16.249
20  
8.123
0
VERTEX
10    
16.264
20  
8.123
0
VERTEX
10    
16.275
20  
8.113
0
VERTEX
10    
16.283
20  
8.113
0
VERTEX
10    
16.299
20  
8.113
0
VERTEX
10    
16.308
20  
8.113
0
VERTEX
10    
16.318
20  
8.107
0
VERTEX
10    
16.318
20  
8.096
0
VERTEX
10    
16.318
20  
8.081
0
VERTEX
10    
16.318
20  
8.066
0
VERTEX
10    
16.318
20  
8.049
0
VERTEX
10    
16.323
20  
8.039
0
VERTEX
10    
16.323
20  
8.028
0
VERTEX
10    
16.323
20  
8.017
0
VERTEX
10    
16.323
20  
8
0
VERTEX
10    
16.323
20  
7.989
0
VERTEX
10    
16.323
20  
7.969
0
VERTEX
10    
16.323
20  
7.954
0
VERTEX
10    
16.314
20  
7.954
0
VERTEX
10    
16.314
20  
7.934
0
VERTEX
10    
16.314
20  
7.922
0
VERTEX
10    
16.314
20  
7.909
0
VERTEX
10    
16.314
20  
7.895
0
VERTEX
10    
16.314
20  
7.88
0
VERTEX
10    
16.314
20  
7.867
0
VERTEX
10    
16.314
20  
7.855
0
VERTEX
10    
16.314
20  
7.844
0
VERTEX
10    
16.303
20  
7.844
0
VERTEX
10    
16.295
20  
7.844
0
VERTEX
10    
16.271
20  
7.844
0
VERTEX
10    
16.244
20  
7.844
0
VERTEX
10    
16.204
20  
7.84
0
VERTEX
10    
16.175
20  
7.832
0
VERTEX
10    
16.148
20  
7.834
0
VERTEX
10    
16.133
20  
7.834
0
VERTEX
10    
16.121
20  
7.834
0
VERTEX
10    
16.107
20  
7.834
0
VERTEX
10    
16.087
20  
7.834
0
VERTEX
10    
16.077
20  
7.834
0
VERTEX
10    
16.066
20  
7.834
0
VERTEX
10    
16.052
20  
7.834
0
VERTEX
10    
16.032
20  
7.834
0
VERTEX
10    
16.008
20  
7.834
0
VERTEX
10    
15.985
20  
7.834
0
VERTEX
10    
15.972
20  
7.829
0
VERTEX
10    
15.965
20  
7.822
0
VERTEX
10    
15.953
20  
7.823
0
VERTEX
10    
15.937
20  
7.823
0
VERTEX
10    
15.925
20  
7.823
0
VERTEX
10    
15.913
20  
7.821
0
VERTEX
10    
15.903
20  
7.821
0
VERTEX
10    
15.887
20  
7.821
0
VERTEX
10    
15.869
20  
7.821
0
VERTEX
10    
15.869
20  
7.81
0
VERTEX
10    
15.867
20  
7.793
0
VERTEX
10    
15.864
20  
7.761
0
VERTEX
10    
15.864
20  
7.74
0
VERTEX
10    
15.864
20  
7.722
0
VERTEX
10    
15.864
20  
7.705
0
VERTEX
10    
15.864
20  
7.688
0
VERTEX
10    
15.864
20  
7.674
0
VERTEX
10    
15.864
20  
7.661
0
VERTEX
10    
15.864
20  
7.649
0
VERTEX
10    
15.864
20  
7.637
0
VERTEX
10    
15.864
20  
7.623
0
VERTEX
10    
15.864
20  
7.612
0
VERTEX
10    
15.864
20  
7.599
0
VERTEX
10    
15.864
20  
7.588
0
VERTEX
10    
15.864
20  
7.578
0
VERTEX
10    
15.864
20  
7.566
0
VERTEX
10    
15.872
20  
7.555
0
VERTEX
10    
15.872
20  
7.547
0
VERTEX
10    
15.872
20  
7.531
0
VERTEX
10    
15.872
20  
7.516
0
VERTEX
10    
15.872
20  
7.506
0
VERTEX
10    
15.877
20  
7.513
0     
SEQEND
0 
POLYLINE
8     
PlasmaCutterPath
70  
0  
6 
Continuous
40    
0.1
41 
0.1   
43
0.1
0
VERTEX
10    
16.687
20  
8.094
0
VERTEX
10    
16.676
20  
8.094
0
VERTEX
10    
16.689
20  
8.1
0
VERTEX
10    
16.7
20  
8.098
0
VERTEX
10    
16.713
20  
8.098
0
VERTEX
10    
16.723
20  
8.098
0
VERTEX
10    
16.734
20  
8.098
0
VERTEX
10    
16.745
20  
8.093
0
VERTEX
10    
16.756
20  
8.093
0
VERTEX
10    
16.77
20  
8.093
0
VERTEX
10    
16.784
20  
8.093
0
VERTEX
10    
16.799
20  
8.093
0
VERTEX
10    
16.811
20  
8.093
0
VERTEX
10    
16.814
20  
8.083
0
VERTEX
10    
16.814
20  
8.071
0
VERTEX
10    
16.814
20  
8.059
0
VERTEX
10    
16.814
20  
8.047
0
VERTEX
10    
16.828
20  
8.031
0
VERTEX
10    
16.828
20  
8.014
0
VERTEX
10    
16.828
20  
7.997
0
VERTEX
10    
16.828
20  
7.989
0
VERTEX
10    
16.828
20  
7.974
0
VERTEX
10    
16.84
20  
7.957
0
VERTEX
10    
16.84
20  
7.947
0
VERTEX
10    
16.84
20  
7.932
0
VERTEX
10    
16.844
20  
7.924
0
VERTEX
10    
16.851
20  
7.903
0
VERTEX
10    
16.85
20  
7.894
0
VERTEX
10    
16.85
20  
7.88
0
VERTEX
10    
16.854
20  
7.863
0
VERTEX
10    
16.862
20  
7.844
0
VERTEX
10    
16.861
20  
7.822
0
VERTEX
10    
16.866
20  
7.797
0
VERTEX
10    
16.875
20  
7.769
0
VERTEX
10    
16.875
20  
7.752
0
VERTEX
10    
16.89
20  
7.734
0
VERTEX
10    
16.89
20  
7.719
0
VERTEX
10    
16.89
20  
7.706
0
VERTEX
10    
16.906
20  
7.693
0
VERTEX
10    
16.906
20  
7.68
0
VERTEX
10    
16.917
20  
7.67
0
VERTEX
10    
16.917
20  
7.652
0
VERTEX
10    
16.929
20  
7.652
0
VERTEX
10    
16.929
20  
7.633
0
VERTEX
10    
16.933
20  
7.625
0
VERTEX
10    
16.943
20  
7.609
0
VERTEX
10    
16.942
20  
7.59
0
VERTEX
10    
16.957
20  
7.573
0
VERTEX
10    
16.957
20  
7.556
0
VERTEX
10    
16.969
20  
7.545
0
VERTEX
10    
16.969
20  
7.527
0
VERTEX
10    
16.983
20  
7.527
0
VERTEX
10    
16.983
20  
7.512
0
VERTEX
10    
16.983
20  
7.501
0
VERTEX
10    
16.998
20  
7.488
0
VERTEX
10    
16.998
20  
7.477
0
VERTEX
10    
17.014
20  
7.477
0
VERTEX
10    
17.014
20  
7.459
0
VERTEX
10    
17.025
20  
7.441
0
VERTEX
10    
17.025
20  
7.427
0
VERTEX
10    
17.041
20  
7.404
0
VERTEX
10    
17.041
20  
7.386
0
VERTEX
10    
17.054
20  
7.371
0
VERTEX
10    
17.054
20  
7.358
0
VERTEX
10    
17.068
20  
7.339
0
VERTEX
10    
17.068
20  
7.324
0
VERTEX
10    
17.079
20  
7.306
0
VERTEX
10    
17.079
20  
7.293
0
VERTEX
10    
17.092
20  
7.277
0
VERTEX
10    
17.092
20  
7.264
0
VERTEX
10    
17.103
20  
7.264
0
VERTEX
10    
17.103
20  
7.252
0
VERTEX
10    
17.115
20  
7.239
0
VERTEX
10    
17.115
20  
7.226
0
VERTEX
10    
17.126
20  
7.226
0
VERTEX
10    
17.126
20  
7.214
0
VERTEX
10    
17.135
20  
7.214
0
VERTEX
10    
17.135
20  
7.228
0
VERTEX
10    
17.135
20  
7.244
0
VERTEX
10    
17.135
20  
7.252
0
VERTEX
10    
17.135
20  
7.272
0
VERTEX
10    
17.135
20  
7.284
0
VERTEX
10    
17.135
20  
7.304
0
VERTEX
10    
17.135
20  
7.317
0
VERTEX
10    
17.136
20  
7.328
0
VERTEX
10    
17.139
20  
7.339
0
VERTEX
10    
17.139
20  
7.357
0
VERTEX
10    
17.139
20  
7.389
0
VERTEX
10    
17.139
20  
7.439
0
VERTEX
10    
17.139
20  
7.463
0
VERTEX
10    
17.139
20  
7.487
0
VERTEX
10    
17.149
20  
7.506
0
VERTEX
10    
17.149
20  
7.527
0
VERTEX
10    
17.149
20  
7.544
0
VERTEX
10    
17.149
20  
7.561
0
VERTEX
10    
17.149
20  
7.577
0
VERTEX
10    
17.149
20  
7.593
0
VERTEX
10    
17.149
20  
7.617
0
VERTEX
10    
17.149
20  
7.635
0
VERTEX
10    
17.149
20  
7.668
0
VERTEX
10    
17.149
20  
7.703
0
VERTEX
10    
17.149
20  
7.729
0
VERTEX
10    
17.149
20  
7.748
0
VERTEX
10    
17.149
20  
7.764
0
VERTEX
10    
17.138
20  
7.79
0
VERTEX
10    
17.138
20  
7.835
0
VERTEX
10    
17.138
20  
7.869
0
VERTEX
10    
17.138
20  
7.89
0
VERTEX
10    
17.138
20  
7.906
0
VERTEX
10    
17.138
20  
7.929
0
VERTEX
10    
17.138
20  
7.949
0
VERTEX
10    
17.138
20  
7.965
0
VERTEX
10    
17.138
20  
7.98
0
VERTEX
10    
17.138
20  
7.992
0
VERTEX
10    
17.138
20  
8.008
0
VERTEX
10    
17.138
20  
8.015
0
VERTEX
10    
17.138
20  
8.031
0
VERTEX
10    
17.138
20  
8.043
0
VERTEX
10    
17.138
20  
8.058
0
VERTEX
10    
17.138
20  
8.072
0
VERTEX
10    
17.138
20  
8.084
0
VERTEX
10    
17.145
20  
8.084
0
VERTEX
10    
17.145
20  
8.099
0
VERTEX
10    
17.145
20  
8.112
0
VERTEX
10    
17.156
20  
8.124
0
VERTEX
10    
17.171
20  
8.124
0
VERTEX
10    
17.186
20  
8.136
0
VERTEX
10    
17.199
20  
8.136
0
VERTEX
10    
17.217
20  
8.136
0
VERTEX
10    
17.231
20  
8.136
0
VERTEX
10    
17.246
20  
8.136
0
VERTEX
10    
17.26
20  
8.136
0
VERTEX
10    
17.27
20  
8.136
0
VERTEX
10    
17.281
20  
8.14
0
VERTEX
10    
17.293
20  
8.14
0
VERTEX
10    
17.31
20  
8.14
0
VERTEX
10    
17.325
20  
8.14
0
VERTEX
10    
17.343
20  
8.14
0
VERTEX
10    
17.356
20  
8.14
0
VERTEX
10    
17.362
20  
8.131
0
VERTEX
10    
17.373
20  
8.132
0
VERTEX
10    
17.382
20  
8.132
0
VERTEX
10    
17.393
20  
8.132
0
VERTEX
10    
17.405
20  
8.132
0
VERTEX
10    
17.405
20  
8.122
0
VERTEX
10    
17.416
20  
8.122
0
VERTEX
10    
17.427
20  
8.122
0
VERTEX
10    
17.427
20  
8.107
0
VERTEX
10    
17.44
20  
8.107
0
VERTEX
10    
17.44
20  
8.094
0
VERTEX
10    
17.44
20  
8.077
0
VERTEX
10    
17.44
20  
8.069
0
VERTEX
10    
17.44
20  
8.047
0
VERTEX
10    
17.44
20  
8.036
0
VERTEX
10    
17.44
20  
8.022
0
VERTEX
10    
17.436
20  
8.007
0
VERTEX
10    
17.428
20  
7.994
0
VERTEX
10    
17.429
20  
7.968
0
VERTEX
10    
17.429
20  
7.951
0
VERTEX
10    
17.429
20  
7.93
0
VERTEX
10    
17.429
20  
7.904
0
VERTEX
10    
17.429
20  
7.884
0
VERTEX
10    
17.419
20  
7.86
0
VERTEX
10    
17.419
20  
7.827
0
VERTEX
10    
17.419
20  
7.789
0
VERTEX
10    
17.419
20  
7.758
0
VERTEX
10    
17.419
20  
7.726
0
VERTEX
10    
17.419
20  
7.699
0
VERTEX
10    
17.406
20  
7.675
0
VERTEX
10    
17.406
20  
7.656
0
VERTEX
10    
17.406
20  
7.638
0
VERTEX
10    
17.406
20  
7.619
0
VERTEX
10    
17.406
20  
7.587
0
VERTEX
10    
17.406
20  
7.565
0
VERTEX
10    
17.401
20  
7.546
0
VERTEX
10    
17.392
20  
7.528
0
VERTEX
10    
17.394
20  
7.511
0
VERTEX
10    
17.394
20  
7.491
0
VERTEX
10    
17.394
20  
7.465
0
VERTEX
10    
17.394
20  
7.436
0
VERTEX
10    
17.394
20  
7.405
0
VERTEX
10    
17.394
20  
7.368
0
VERTEX
10    
17.394
20  
7.348
0
VERTEX
10    
17.394
20  
7.327
0
VERTEX
10    
17.38
20  
7.306
0
VERTEX
10    
17.38
20  
7.286
0
VERTEX
10    
17.37
20  
7.27
0
VERTEX
10    
17.37
20  
7.257
0
VERTEX
10    
17.37
20  
7.246
0
VERTEX
10    
17.37
20  
7.236
0
VERTEX
10    
17.37
20  
7.224
0
VERTEX
10    
17.359
20  
7.207
0
VERTEX
10    
17.359
20  
7.185
0
VERTEX
10    
17.359
20  
7.173
0
VERTEX
10    
17.359
20  
7.154
0
VERTEX
10    
17.359
20  
7.146
0
VERTEX
10    
17.359
20  
7.125
0
VERTEX
10    
17.359
20  
7.111
0
VERTEX
10    
17.359
20  
7.093
0
VERTEX
10    
17.359
20  
7.073
0
VERTEX
10    
17.359
20  
7.054
0
VERTEX
10    
17.359
20  
7.04
0
VERTEX
10    
17.364
20  
7.015
0
VERTEX
10    
17.373
20  
6.989
0
VERTEX
10    
17.372
20  
6.951
0
VERTEX
10    
17.372
20  
6.929
0
VERTEX
10    
17.372
20  
6.908
0
VERTEX
10    
17.382
20  
6.889
0
VERTEX
10    
17.382
20  
6.872
0
VERTEX
10    
17.382
20  
6.859
0
VERTEX
10    
17.382
20  
6.847
0
VERTEX
10    
17.382
20  
6.839
0
VERTEX
10    
17.382
20  
6.819
0
VERTEX
10    
17.382
20  
6.808
0
VERTEX
10    
17.382
20  
6.784
0
VERTEX
10    
17.382
20  
6.77
0
VERTEX
10    
17.383
20  
6.757
0
VERTEX
10    
17.383
20  
6.747
0
VERTEX
10    
17.383
20  
6.736
0
VERTEX
10    
17.383
20  
6.721
0
VERTEX
10    
17.383
20  
6.705
0
VERTEX
10    
17.383
20  
6.692
0
VERTEX
10    
17.383
20  
6.674
0
VERTEX
10    
17.383
20  
6.652
0
VERTEX
10    
17.383
20  
6.631
0
VERTEX
10    
17.383
20  
6.608
0
VERTEX
10    
17.383
20  
6.582
0
VERTEX
10    
17.383
20  
6.563
0
VERTEX
10    
17.383
20  
6.547
0
VERTEX
10    
17.383
20  
6.532
0
VERTEX
10    
17.383
20  
6.518
0
VERTEX
10    
17.383
20  
6.502
0
VERTEX
10    
17.383
20  
6.483
0
VERTEX
10    
17.383
20  
6.467
0
VERTEX
10    
17.383
20  
6.454
0
VERTEX
10    
17.383
20  
6.444
0
VERTEX
10    
17.383
20  
6.434
0
VERTEX
10    
17.383
20  
6.422
0
VERTEX
10    
17.383
20  
6.407
0
VERTEX
10    
17.383
20  
6.396
0
VERTEX
10    
17.379
20  
6.385
0
VERTEX
10    
17.379
20  
6.373
0
VERTEX
10    
17.368
20  
6.373
0
VERTEX
10    
17.353
20  
6.358
0
VERTEX
10    
17.336
20  
6.358
0
VERTEX
10    
17.326
20  
6.358
0
VERTEX
10    
17.306
20  
6.358
0
VERTEX
10    
17.289
20  
6.358
0
VERTEX
10    
17.275
20  
6.352
0
VERTEX
10    
17.262
20  
6.352
0
VERTEX
10    
17.252
20  
6.352
0
VERTEX
10    
17.24
20  
6.352
0
VERTEX
10    
17.228
20  
6.352
0
VERTEX
10    
17.214
20  
6.361
0
VERTEX
10    
17.202
20  
6.361
0
VERTEX
10    
17.191
20  
6.361
0
VERTEX
10    
17.18
20  
6.357
0
VERTEX
10    
17.172
20  
6.357
0
VERTEX
10    
17.172
20  
6.369
0
VERTEX
10    
17.172
20  
6.388
0
VERTEX
10    
17.159
20  
6.4
0
VERTEX
10    
17.159
20  
6.414
0
VERTEX
10    
17.148
20  
6.414
0
VERTEX
10    
17.148
20  
6.429
0
VERTEX
10    
17.148
20  
6.442
0
VERTEX
10    
17.137
20  
6.442
0
VERTEX
10    
17.137
20  
6.46
0
VERTEX
10    
17.124
20  
6.471
0
VERTEX
10    
17.124
20  
6.485
0
VERTEX
10    
17.107
20  
6.505
0
VERTEX
10    
17.091
20  
6.531
0
VERTEX
10    
17.077
20  
6.555
0
VERTEX
10    
17.061
20  
6.577
0
VERTEX
10    
17.044
20  
6.61
0
VERTEX
10    
17.022
20  
6.639
0
VERTEX
10    
17.004
20  
6.664
0
VERTEX
10    
16.997
20  
6.692
0
VERTEX
10    
16.985
20  
6.71
0
VERTEX
10    
16.979
20  
6.728
0
VERTEX
10    
16.96
20  
6.747
0
VERTEX
10    
16.95
20  
6.765
0
VERTEX
10    
16.944
20  
6.782
0
VERTEX
10    
16.939
20  
6.797
0
VERTEX
10    
16.93
20  
6.802
0
VERTEX
10    
16.93
20  
6.823
0
VERTEX
10    
16.918
20  
6.823
0
VERTEX
10    
16.918
20  
6.84
0
VERTEX
10    
16.907
20  
6.856
0
VERTEX
10    
16.907
20  
6.87
0
VERTEX
10    
16.897
20  
6.887
0
VERTEX
10    
16.897
20  
6.902
0
VERTEX
10    
16.887
20  
6.925
0
VERTEX
10    
16.876
20  
6.948
0
VERTEX
10    
16.876
20  
6.969
0
VERTEX
10    
16.863
20  
6.988
0
VERTEX
10    
16.863
20  
7.004
0
VERTEX
10    
16.852
20  
7.019
0
VERTEX
10    
16.852
20  
7.033
0
VERTEX
10    
16.852
20  
7.049
0
VERTEX
10    
16.84
20  
7.063
0
VERTEX
10    
16.84
20  
7.081
0
VERTEX
10    
16.83
20  
7.081
0
VERTEX
10    
16.83
20  
7.067
0
VERTEX
10    
16.83
20  
7.035
0
VERTEX
10    
16.83
20  
6.985
0
VERTEX
10    
16.83
20  
6.929
0
VERTEX
10    
16.83
20  
6.88
0
VERTEX
10    
16.83
20  
6.842
0
VERTEX
10    
16.83
20  
6.812
0
VERTEX
10    
16.83
20  
6.786
0
VERTEX
10    
16.83
20  
6.758
0
VERTEX
10    
16.83
20  
6.73
0
VERTEX
10    
16.823
20  
6.7
0
VERTEX
10    
16.823
20  
6.662
0
VERTEX
10    
16.823
20  
6.626
0
VERTEX
10    
16.823
20  
6.591
0
VERTEX
10    
16.823
20  
6.563
0
VERTEX
10    
16.823
20  
6.54
0
VERTEX
10    
16.813
20  
6.524
0
VERTEX
10    
16.813
20  
6.502
0
VERTEX
10    
16.813
20  
6.485
0
VERTEX
10    
16.813
20  
6.469
0
VERTEX
10    
16.813
20  
6.459
0
VERTEX
10    
16.813
20  
6.439
0
VERTEX
10    
16.813
20  
6.42
0
VERTEX
10    
16.813
20  
6.408
0
VERTEX
10    
16.813
20  
6.396
0
VERTEX
10    
16.813
20  
6.385
0
VERTEX
10    
16.808
20  
6.373
0
VERTEX
10    
16.808
20  
6.362
0
VERTEX
10    
16.805
20  
6.351
0
VERTEX
10    
16.797
20  
6.351
0
VERTEX
10    
16.776
20  
6.351
0
VERTEX
10    
16.763
20  
6.351
0
VERTEX
10    
16.755
20  
6.347
0
VERTEX
10    
16.75
20  
6.34
0
VERTEX
10    
16.736
20  
6.341
0
VERTEX
10    
16.717
20  
6.341
0
VERTEX
10    
16.703
20  
6.341
0
VERTEX
10    
16.691
20  
6.341
0
VERTEX
10    
16.679
20  
6.341
0
VERTEX
10    
16.666
20  
6.341
0
VERTEX
10    
16.654
20  
6.341
0
VERTEX
10    
16.64
20  
6.341
0
VERTEX
10    
16.62
20  
6.346
0
VERTEX
10    
16.585
20  
6.346
0
VERTEX
10    
16.569
20  
6.346
0
VERTEX
10    
16.56
20  
6.346
0
VERTEX
10    
16.562
20  
6.358
0
VERTEX
10    
16.562
20  
6.369
0
VERTEX
10    
16.562
20  
6.382
0
VERTEX
10    
16.562
20  
6.394
0
VERTEX
10    
16.567
20  
6.403
0
VERTEX
10    
16.575
20  
6.425
0
VERTEX
10    
16.574
20  
6.435
0
VERTEX
10    
16.574
20  
6.449
0
VERTEX
10    
16.574
20  
6.47
0
VERTEX
10    
16.574
20  
6.5
0
VERTEX
10    
16.574
20  
6.535
0
VERTEX
10    
16.574
20  
6.561
0
VERTEX
10    
16.574
20  
6.595
0
VERTEX
10    
16.574
20  
6.638
0
VERTEX
10    
16.581
20  
6.665
0
VERTEX
10    
16.581
20  
6.679
0
VERTEX
10    
16.581
20  
6.691
0
VERTEX
10    
16.581
20  
6.703
0
VERTEX
10    
16.581
20  
6.718
0
VERTEX
10    
16.581
20  
6.732
0
VERTEX
10    
16.581
20  
6.746
0
VERTEX
10    
16.581
20  
6.76
0
VERTEX
10    
16.581
20  
6.773
0
VERTEX
10    
16.581
20  
6.799
0
VERTEX
10    
16.588
20  
6.821
0
VERTEX
10    
16.588
20  
6.846
0
VERTEX
10    
16.588
20  
6.875
0
VERTEX
10    
16.598
20  
6.894
0
VERTEX
10    
16.598
20  
6.909
0
VERTEX
10    
16.598
20  
6.924
0
VERTEX
10    
16.598
20  
6.957
0
VERTEX
10    
16.598
20  
6.996
0
VERTEX
10    
16.598
20  
7.015
0
VERTEX
10    
16.598
20  
7.039
0
VERTEX
10    
16.598
20  
7.057
0
VERTEX
10    
16.598
20  
7.088
0
VERTEX
10    
16.598
20  
7.123
0
VERTEX
10    
16.586
20  
7.154
0
VERTEX
10    
16.586
20  
7.173
0
VERTEX
10    
16.586
20  
7.186
0
VERTEX
10    
16.574
20  
7.203
0
VERTEX
10    
16.574
20  
7.224
0
VERTEX
10    
16.574
20  
7.24
0
VERTEX
10    
16.574
20  
7.254
0
VERTEX
10    
16.574
20  
7.263
0
VERTEX
10    
16.574
20  
7.287
0
VERTEX
10    
16.579
20  
7.301
0
VERTEX
10    
16.59
20  
7.323
0
VERTEX
10    
16.593
20  
7.35
0
VERTEX
10    
16.602
20  
7.374
0
VERTEX
10    
16.601
20  
7.409
0
VERTEX
10    
16.611
20  
7.438
0
VERTEX
10    
16.611
20  
7.475
0
VERTEX
10    
16.611
20  
7.502
0
VERTEX
10    
16.611
20  
7.522
0
VERTEX
10    
16.611
20  
7.537
0
VERTEX
10    
16.622
20  
7.56
0
VERTEX
10    
16.622
20  
7.579
0
VERTEX
10    
16.622
20  
7.597
0
VERTEX
10    
16.622
20  
7.609
0
VERTEX
10    
16.622
20  
7.623
0
VERTEX
10    
16.622
20  
7.647
0
VERTEX
10    
16.622
20  
7.666
0
VERTEX
10    
16.622
20  
7.685
0
VERTEX
10    
16.611
20  
7.709
0
VERTEX
10    
16.611
20  
7.724
0
VERTEX
10    
16.611
20  
7.738
0
VERTEX
10    
16.611
20  
7.749
0
VERTEX
10    
16.611
20  
7.762
0
VERTEX
10    
16.611
20  
7.783
0
VERTEX
10    
16.611
20  
7.803
0
VERTEX
10    
16.611
20  
7.829
0
VERTEX
10    
16.595
20  
7.891
0
VERTEX
10    
16.596
20  
7.904
0
VERTEX
10    
16.596
20  
7.92
0
VERTEX
10    
16.596
20  
7.929
0
VERTEX
10    
16.596
20  
7.952
0
VERTEX
10    
16.596
20  
7.961
0
VERTEX
10    
16.596
20  
7.972
0
VERTEX
10    
16.596
20  
7.986
0
VERTEX
10    
16.596
20  
8.001
0
VERTEX
10    
16.596
20  
8.025
0
VERTEX
10    
16.587
20  
8.043
0
VERTEX
10    
16.587
20  
8.057
0
VERTEX
10    
16.587
20  
8.074
0
VERTEX
10    
16.587
20  
8.085
0
VERTEX
10    
16.587
20  
8.097
0
VERTEX
10    
16.587
20  
8.108
0
VERTEX
10    
16.587
20  
8.135
0
VERTEX
10    
16.587
20  
8.149
0
VERTEX
10    
16.599
20  
8.149
0
VERTEX
10    
16.607
20  
8.149
0
VERTEX
10    
16.629
20  
8.149
0
VERTEX
10    
16.642
20  
8.149
0
VERTEX
10    
16.663
20  
8.149
0
VERTEX
10    
16.691
20  
8.145
0
VERTEX
10    
16.711
20  
8.136
0
VERTEX
10    
16.725
20  
8.137
0
VERTEX
10    
16.733
20  
8.137
0
VERTEX
10    
16.746
20  
8.137
0
VERTEX
10    
16.757
20  
8.137
0
VERTEX
10    
16.77
20  
8.131
0     
SEQEND
0 
POLYLINE
8     
PlasmaCutterPath
70  
0  
6 
Continuous
40    
0.1
41 
0.1   
43
0.1
0
VERTEX
10    
17.99
20  
8.074
0
VERTEX
10    
18.003
20  
8.08
0
VERTEX
10    
18.013
20  
8.08
0
VERTEX
10    
18.03
20  
8.08
0
VERTEX
10    
18.06
20  
8.08
0
VERTEX
10    
18.081
20  
8.08
0
VERTEX
10    
18.096
20  
8.07
0
VERTEX
10    
18.11
20  
8.07
0
VERTEX
10    
18.12
20  
8.07
0
VERTEX
10    
18.157
20  
8.07
0
VERTEX
10    
18.205
20  
8.07
0
VERTEX
10    
18.236
20  
8.07
0
VERTEX
10    
18.25
20  
8.07
0
VERTEX
10    
18.265
20  
8.07
0
VERTEX
10    
18.275
20  
8.07
0
VERTEX
10    
18.29
20  
8.07
0
VERTEX
10    
18.312
20  
8.075
0
VERTEX
10    
18.331
20  
8.084
0
VERTEX
10    
18.354
20  
8.082
0
VERTEX
10    
18.373
20  
8.082
0
VERTEX
10    
18.38
20  
8.082
0
VERTEX
10    
18.391
20  
8.082
0
VERTEX
10    
18.399
20  
8.087
0
VERTEX
10    
18.404
20  
8.075
0
VERTEX
10    
18.409
20  
8.054
0
VERTEX
10    
18.409
20  
8.041
0
VERTEX
10    
18.413
20  
8.028
0
VERTEX
10    
18.421
20  
8.02
0
VERTEX
10    
18.42
20  
8
0
VERTEX
10    
18.431
20  
7.981
0
VERTEX
10    
18.431
20  
7.966
0
VERTEX
10    
18.431
20  
7.948
0
VERTEX
10    
18.431
20  
7.929
0
VERTEX
10    
18.431
20  
7.913
0
VERTEX
10    
18.432
20  
7.903
0
VERTEX
10    
18.432
20  
7.89
0
VERTEX
10    
18.432
20  
7.876
0
VERTEX
10    
18.426
20  
7.867
0
VERTEX
10    
18.412
20  
7.85
0
VERTEX
10    
18.406
20  
7.836
0
VERTEX
10    
18.38
20  
7.823
0
VERTEX
10    
18.366
20  
7.823
0
VERTEX
10    
18.348
20  
7.808
0
VERTEX
10    
18.328
20  
7.808
0
VERTEX
10    
18.308
20  
7.808
0
VERTEX
10    
18.291
20  
7.808
0
VERTEX
10    
18.279
20  
7.808
0
VERTEX
10    
18.27
20  
7.804
0
VERTEX
10    
18.256
20  
7.798
0
VERTEX
10    
18.235
20  
7.798
0
VERTEX
10    
18.223
20  
7.808
0
VERTEX
10    
18.213
20  
7.808
0
VERTEX
10    
18.199
20  
7.808
0
VERTEX
10    
18.198
20  
7.791
0
VERTEX
10    
18.188
20  
7.775
0
VERTEX
10    
18.188
20  
7.749
0
VERTEX
10    
18.188
20  
7.721
0
VERTEX
10    
18.188
20  
7.693
0
VERTEX
10    
18.188
20  
7.666
0
VERTEX
10    
18.188
20  
7.637
0
VERTEX
10    
18.188
20  
7.609
0
VERTEX
10    
18.188
20  
7.584
0
VERTEX
10    
18.188
20  
7.561
0
VERTEX
10    
18.207
20  
7.53
0
VERTEX
10    
18.205
20  
7.513
0
VERTEX
10    
18.205
20  
7.494
0
VERTEX
10    
18.205
20  
7.468
0
VERTEX
10    
18.205
20  
7.435
0
VERTEX
10    
18.205
20  
7.394
0
VERTEX
10    
18.205
20  
7.341
0
VERTEX
10    
18.205
20  
7.314
0
VERTEX
10    
18.205
20  
7.288
0
VERTEX
10    
18.205
20  
7.261
0
VERTEX
10    
18.205
20  
7.241
0
VERTEX
10    
18.189
20  
7.198
0
VERTEX
10    
18.191
20  
7.173
0
VERTEX
10    
18.181
20  
7.157
0
VERTEX
10    
18.181
20  
7.142
0
VERTEX
10    
18.181
20  
7.123
0
VERTEX
10    
18.181
20  
7.102
0
VERTEX
10    
18.169
20  
7.074
0
VERTEX
10    
18.169
20  
7.046
0
VERTEX
10    
18.169
20  
7.016
0
VERTEX
10    
18.155
20  
6.972
0
VERTEX
10    
18.155
20  
6.943
0
VERTEX
10    
18.144
20  
6.92
0
VERTEX
10    
18.144
20  
6.9
0
VERTEX
10    
18.144
20  
6.882
0
VERTEX
10    
18.144
20  
6.865
0
VERTEX
10    
18.144
20  
6.85
0
VERTEX
10    
18.144
20  
6.837
0
VERTEX
10    
18.144
20  
6.822
0
VERTEX
10    
18.144
20  
6.806
0
VERTEX
10    
18.144
20  
6.791
0
VERTEX
10    
18.144
20  
6.778
0
VERTEX
10    
18.132
20  
6.763
0
VERTEX
10    
18.132
20  
6.749
0
VERTEX
10    
18.132
20  
6.734
0
VERTEX
10    
18.132
20  
6.719
0
VERTEX
10    
18.132
20  
6.708
0
VERTEX
10    
18.132
20  
6.688
0
VERTEX
10    
18.132
20  
6.675
0
VERTEX
10    
18.132
20  
6.658
0
VERTEX
10    
18.132
20  
6.637
0
VERTEX
10    
18.127
20  
6.616
0
VERTEX
10    
18.127
20  
6.589
0
VERTEX
10    
18.127
20  
6.568
0
VERTEX
10    
18.127
20  
6.557
0
VERTEX
10    
18.127
20  
6.542
0
VERTEX
10    
18.127
20  
6.534
0
VERTEX
10    
18.127
20  
6.519
0
VERTEX
10    
18.127
20  
6.502
0
VERTEX
10    
18.127
20  
6.486
0
VERTEX
10    
18.122
20  
6.47
0
VERTEX
10    
18.122
20  
6.456
0
VERTEX
10    
18.122
20  
6.448
0
VERTEX
10    
18.122
20  
6.427
0
VERTEX
10    
18.122
20  
6.419
0
VERTEX
10    
18.122
20  
6.407
0
VERTEX
10    
18.122
20  
6.396
0
VERTEX
10    
18.122
20  
6.378
0
VERTEX
10    
18.122
20  
6.366
0
VERTEX
10    
18.126
20  
6.349
0
VERTEX
10    
18.126
20  
6.338
0
VERTEX
10    
18.111
20  
6.338
0
VERTEX
10    
18.111
20  
6.326
0
VERTEX
10    
18.097
20  
6.326
0
VERTEX
10    
18.078
20  
6.315
0
VERTEX
10    
18.068
20  
6.315
0
VERTEX
10    
18.054
20  
6.315
0
VERTEX
10    
18.041
20  
6.315
0
VERTEX
10    
18.028
20  
6.315
0
VERTEX
10    
18.018
20  
6.315
0
VERTEX
10    
18.007
20  
6.315
0
VERTEX
10    
17.99
20  
6.315
0
VERTEX
10    
17.974
20  
6.315
0
VERTEX
10    
17.96
20  
6.315
0
VERTEX
10    
17.941
20  
6.321
0
VERTEX
10    
17.925
20  
6.321
0
VERTEX
10    
17.911
20  
6.321
0
VERTEX
10    
17.905
20  
6.334
0
VERTEX
10    
17.905
20  
6.35
0
VERTEX
10    
17.905
20  
6.369
0
VERTEX
10    
17.917
20  
6.39
0
VERTEX
10    
17.917
20  
6.403
0
VERTEX
10    
17.917
20  
6.418
0
VERTEX
10    
17.917
20  
6.429
0
VERTEX
10    
17.917
20  
6.458
0
VERTEX
10    
17.917
20  
6.475
0
VERTEX
10    
17.917
20  
6.495
0
VERTEX
10    
17.917
20  
6.521
0
VERTEX
10    
17.917
20  
6.541
0
VERTEX
10    
17.917
20  
6.559
0
VERTEX
10    
17.917
20  
6.57
0
VERTEX
10    
17.917
20  
6.589
0
VERTEX
10    
17.917
20  
6.64
0
VERTEX
10    
17.917
20  
6.656
0
VERTEX
10    
17.917
20  
6.681
0
VERTEX
10    
17.917
20  
6.705
0
VERTEX
10    
17.917
20  
6.721
0
VERTEX
10    
17.917
20  
6.735
0
VERTEX
10    
17.917
20  
6.745
0
VERTEX
10    
17.907
20  
6.759
0
VERTEX
10    
17.907
20  
6.775
0
VERTEX
10    
17.907
20  
6.792
0
VERTEX
10    
17.907
20  
6.807
0
VERTEX
10    
17.907
20  
6.818
0
VERTEX
10    
17.907
20  
6.833
0
VERTEX
10    
17.907
20  
6.849
0
VERTEX
10    
17.907
20  
6.861
0
VERTEX
10    
17.907
20  
6.889
0
VERTEX
10    
17.907
20  
6.921
0
VERTEX
10    
17.907
20  
6.96
0
VERTEX
10    
17.907
20  
7.001
0
VERTEX
10    
17.907
20  
7.025
0
VERTEX
10    
17.907
20  
7.054
0
VERTEX
10    
17.907
20  
7.084
0
VERTEX
10    
17.907
20  
7.119
0
VERTEX
10    
17.907
20  
7.147
0
VERTEX
10    
17.907
20  
7.175
0
VERTEX
10    
17.907
20  
7.198
0
VERTEX
10    
17.914
20  
7.21
0
VERTEX
10    
17.914
20  
7.231
0
VERTEX
10    
17.914
20  
7.265
0
VERTEX
10    
17.914
20  
7.29
0
VERTEX
10    
17.914
20  
7.309
0
VERTEX
10    
17.914
20  
7.323
0
VERTEX
10    
17.914
20  
7.343
0
VERTEX
10    
17.914
20  
7.358
0
VERTEX
10    
17.914
20  
7.38
0
VERTEX
10    
17.914
20  
7.408
0
VERTEX
10    
17.914
20  
7.437
0
VERTEX
10    
17.912
20  
7.47
0
VERTEX
10    
17.912
20  
7.495
0
VERTEX
10    
17.912
20  
7.511
0
VERTEX
10    
17.912
20  
7.522
0
VERTEX
10    
17.912
20  
7.54
0
VERTEX
10    
17.912
20  
7.554
0
VERTEX
10    
17.912
20  
7.578
0
VERTEX
10    
17.912
20  
7.602
0
VERTEX
10    
17.912
20  
7.614
0
VERTEX
10    
17.912
20  
7.624
0
VERTEX
10    
17.913
20  
7.643
0
VERTEX
10    
17.916
20  
7.658
0
VERTEX
10    
17.916
20  
7.668
0
VERTEX
10    
17.916
20  
7.684
0
VERTEX
10    
17.916
20  
7.697
0
VERTEX
10    
17.916
20  
7.71
0
VERTEX
10    
17.916
20  
7.74
0
VERTEX
10    
17.916
20  
7.753
0
VERTEX
10    
17.916
20  
7.771
0
VERTEX
10    
17.916
20  
7.791
0
VERTEX
10    
17.916
20  
7.82
0
VERTEX
10    
17.911
20  
7.846
0
VERTEX
10    
17.911
20  
7.858
0
VERTEX
10    
17.9
20  
7.868
0
VERTEX
10    
17.889
20  
7.868
0
VERTEX
10    
17.875
20  
7.868
0
VERTEX
10    
17.86
20  
7.877
0
VERTEX
10    
17.842
20  
7.877
0
VERTEX
10    
17.829
20  
7.877
0
VERTEX
10    
17.817
20  
7.877
0
VERTEX
10    
17.798
20  
7.877
0
VERTEX
10    
17.784
20  
7.877
0
VERTEX
10    
17.771
20  
7.867
0
VERTEX
10    
17.751
20  
7.867
0
VERTEX
10    
17.737
20  
7.867
0
VERTEX
10    
17.719
20  
7.867
0
VERTEX
10    
17.706
20  
7.867
0
VERTEX
10    
17.696
20  
7.867
0
VERTEX
10    
17.685
20  
7.867
0
VERTEX
10    
17.673
20  
7.867
0
VERTEX
10    
17.66
20  
7.867
0
VERTEX
10    
17.647
20  
7.879
0
VERTEX
10    
17.639
20  
7.883
0
VERTEX
10    
17.639
20  
7.899
0
VERTEX
10    
17.639
20  
7.911
0
VERTEX
10    
17.639
20  
7.927
0
VERTEX
10    
17.639
20  
7.942
0
VERTEX
10    
17.639
20  
7.953
0
VERTEX
10    
17.639
20  
7.966
0
VERTEX
10    
17.639
20  
7.98
0
VERTEX
10    
17.639
20  
7.991
0
VERTEX
10    
17.639
20  
8.003
0
VERTEX
10    
17.639
20  
8.014
0
VERTEX
10    
17.639
20  
8.027
0
VERTEX
10    
17.639
20  
8.041
0
VERTEX
10    
17.639
20  
8.058
0
VERTEX
10    
17.642
20  
8.068
0
VERTEX
10    
17.659
20  
8.068
0
VERTEX
10    
17.67
20  
8.068
0
VERTEX
10    
17.681
20  
8.068
0
VERTEX
10    
17.694
20  
8.068
0
VERTEX
10    
17.718
20  
8.068
0
VERTEX
10    
17.746
20  
8.079
0
VERTEX
10    
17.761
20  
8.079
0
VERTEX
10    
17.783
20  
8.079
0
VERTEX
10    
17.812
20  
8.079
0
VERTEX
10    
17.837
20  
8.079
0
VERTEX
10    
17.867
20  
8.079
0
VERTEX
10    
17.883
20  
8.079
0
VERTEX
10    
17.896
20  
8.079
0
VERTEX
10    
17.908
20  
8.079
0
VERTEX
10    
17.924
20  
8.079
0
VERTEX
10    
17.941
20  
8.082
0
VERTEX
10    
17.954
20  
8.082
0
VERTEX
10    
17.967
20  
8.082
0
VERTEX
10    
17.978
20  
8.082
0
VERTEX
10    
17.991
20  
8.082
0
VERTEX
10    
18.007
20  
8.082
0
VERTEX
10    
18.017
20  
8.082
0
VERTEX
10    
18.029
20  
8.082
0     
SEQEND
0 
POLYLINE
8     
PlasmaCutterPath
70  
0  
6 
Continuous
40    
0.1
41 
0.1   
43
0.1
0
VERTEX
10    
18.741
20  
8.078
0
VERTEX
10    
18.75
20  
8.084
0
VERTEX
10    
18.766
20  
8.084
0
VERTEX
10    
18.777
20  
8.084
0
VERTEX
10    
18.788
20  
8.084
0
VERTEX
10    
18.813
20  
8.084
0
VERTEX
10    
18.847
20  
8.084
0
VERTEX
10    
18.873
20  
8.084
0
VERTEX
10    
18.901
20  
8.084
0
VERTEX
10    
18.929
20  
8.084
0
VERTEX
10    
18.95
20  
8.095
0
VERTEX
10    
18.976
20  
8.095
0
VERTEX
10    
19.013
20  
8.095
0
VERTEX
10    
19.043
20  
8.095
0
VERTEX
10    
19.064
20  
8.095
0
VERTEX
10    
19.089
20  
8.095
0
VERTEX
10    
19.116
20  
8.095
0
VERTEX
10    
19.134
20  
8.105
0
VERTEX
10    
19.15
20  
8.105
0
VERTEX
10    
19.166
20  
8.105
0
VERTEX
10    
19.178
20  
8.105
0
VERTEX
10    
19.188
20  
8.102
0
VERTEX
10    
19.198
20  
8.09
0
VERTEX
10    
19.209
20  
8.09
0
VERTEX
10    
19.209
20  
8.078
0
VERTEX
10    
19.22
20  
8.078
0
VERTEX
10    
19.236
20  
8.066
0
VERTEX
10    
19.247
20  
8.066
0
VERTEX
10    
19.257
20  
8.055
0
VERTEX
10    
19.272
20  
8.055
0
VERTEX
10    
19.272
20  
8.042
0
VERTEX
10    
19.285
20  
8.042
0
VERTEX
10    
19.297
20  
8.017
0
VERTEX
10    
19.318
20  
8
0
VERTEX
10    
19.345
20  
7.98
0
VERTEX
10    
19.373
20  
7.969
0
VERTEX
10    
19.39
20  
7.958
0
VERTEX
10    
19.404
20  
7.939
0
VERTEX
10    
19.404
20  
7.927
0
VERTEX
10    
19.404
20  
7.912
0
VERTEX
10    
19.417
20  
7.912
0
VERTEX
10    
19.417
20  
7.896
0
VERTEX
10    
19.417
20  
7.886
0
VERTEX
10    
19.417
20  
7.845
0
VERTEX
10    
19.423
20  
7.794
0
VERTEX
10    
19.444
20  
7.74
0
VERTEX
10    
19.444
20  
7.719
0
VERTEX
10    
19.457
20  
7.705
0
VERTEX
10    
19.457
20  
7.689
0
VERTEX
10    
19.457
20  
7.675
0
VERTEX
10    
19.457
20  
7.657
0
VERTEX
10    
19.471
20  
7.637
0
VERTEX
10    
19.471
20  
7.619
0
VERTEX
10    
19.471
20  
7.606
0
VERTEX
10    
19.483
20  
7.594
0
VERTEX
10    
19.483
20  
7.583
0
VERTEX
10    
19.483
20  
7.566
0
VERTEX
10    
19.483
20  
7.549
0
VERTEX
10    
19.483
20  
7.532
0
VERTEX
10    
19.483
20  
7.516
0
VERTEX
10    
19.483
20  
7.502
0
VERTEX
10    
19.483
20  
7.488
0
VERTEX
10    
19.483
20  
7.472
0
VERTEX
10    
19.483
20  
7.452
0
VERTEX
10    
19.483
20  
7.426
0
VERTEX
10    
19.483
20  
7.399
0
VERTEX
10    
19.483
20  
7.37
0
VERTEX
10    
19.473
20  
7.351
0
VERTEX
10    
19.473
20  
7.339
0
VERTEX
10    
19.473
20  
7.324
0
VERTEX
10    
19.473
20  
7.311
0
VERTEX
10    
19.459
20  
7.299
0
VERTEX
10    
19.459
20  
7.288
0
VERTEX
10    
19.459
20  
7.277
0
VERTEX
10    
19.459
20  
7.266
0
VERTEX
10    
19.449
20  
7.266
0
VERTEX
10    
19.449
20  
7.251
0
VERTEX
10    
19.437
20  
7.231
0
VERTEX
10    
19.437
20  
7.214
0
VERTEX
10    
19.421
20  
7.214
0
VERTEX
10    
19.421
20  
7.199
0
VERTEX
10    
19.408
20  
7.199
0
VERTEX
10    
19.408
20  
7.183
0
VERTEX
10    
19.393
20  
7.175
0
VERTEX
10    
19.386
20  
7.155
0
VERTEX
10    
19.365
20  
7.145
0
VERTEX
10    
19.355
20  
7.136
0
VERTEX
10    
19.344
20  
7.128
0
VERTEX
10    
19.333
20  
7.116
0
VERTEX
10    
19.322
20  
7.116
0
VERTEX
10    
19.322
20  
7.105
0
VERTEX
10    
19.311
20  
7.105
0
VERTEX
10    
19.311
20  
7.093
0
VERTEX
10    
19.311
20  
7.077
0
VERTEX
10    
19.311
20  
7.066
0
VERTEX
10    
19.311
20  
7.05
0
VERTEX
10    
19.311
20  
7.033
0
VERTEX
10    
19.311
20  
7.019
0
VERTEX
10    
19.311
20  
7.003
0
VERTEX
10    
19.322
20  
6.97
0
VERTEX
10    
19.322
20  
6.959
0
VERTEX
10    
19.322
20  
6.943
0
VERTEX
10    
19.333
20  
6.923
0
VERTEX
10    
19.333
20  
6.907
0
VERTEX
10    
19.333
20  
6.888
0
VERTEX
10    
19.333
20  
6.87
0
VERTEX
10    
19.346
20  
6.856
0
VERTEX
10    
19.346
20  
6.831
0
VERTEX
10    
19.346
20  
6.813
0
VERTEX
10    
19.346
20  
6.798
0
VERTEX
10    
19.357
20  
6.798
0
VERTEX
10    
19.357
20  
6.784
0
VERTEX
10    
19.357
20  
6.773
0
VERTEX
10    
19.37
20  
6.75
0
VERTEX
10    
19.385
20  
6.73
0
VERTEX
10    
19.398
20  
6.709
0
VERTEX
10    
19.41
20  
6.685
0
VERTEX
10    
19.408
20  
6.674
0
VERTEX
10    
19.408
20  
6.662
0
VERTEX
10    
19.413
20  
6.645
0
VERTEX
10    
19.421
20  
6.619
0
VERTEX
10    
19.42
20  
6.596
0
VERTEX
10    
19.432
20  
6.562
0
VERTEX
10    
19.432
20  
6.541
0
VERTEX
10    
19.432
20  
6.524
0
VERTEX
10    
19.432
20  
6.512
0
VERTEX
10    
19.432
20  
6.505
0
VERTEX
10    
19.432
20  
6.489
0
VERTEX
10    
19.432
20  
6.471
0
VERTEX
10    
19.447
20  
6.452
0
VERTEX
10    
19.447
20  
6.438
0
VERTEX
10    
19.447
20  
6.43
0
VERTEX
10    
19.451
20  
6.411
0
VERTEX
10    
19.46
20  
6.406
0
VERTEX
10    
19.459
20  
6.394
0
VERTEX
10    
19.459
20  
6.383
0
VERTEX
10    
19.464
20  
6.372
0
VERTEX
10    
19.45
20  
6.372
0
VERTEX
10    
19.437
20  
6.372
0
VERTEX
10    
19.437
20  
6.363
0
VERTEX
10    
19.418
20  
6.363
0
VERTEX
10    
19.41
20  
6.363
0
VERTEX
10    
19.378
20  
6.359
0
VERTEX
10    
19.341
20  
6.352
0
VERTEX
10    
19.324
20  
6.353
0
VERTEX
10    
19.311
20  
6.353
0
VERTEX
10    
19.302
20  
6.353
0
VERTEX
10    
19.272
20  
6.353
0
VERTEX
10    
19.26
20  
6.353
0
VERTEX
10    
19.247
20  
6.353
0
VERTEX
10    
19.233
20  
6.353
0
VERTEX
10    
19.217
20  
6.353
0
VERTEX
10    
19.206
20  
6.353
0
VERTEX
10    
19.194
20  
6.353
0
VERTEX
10    
19.179
20  
6.353
0
VERTEX
10    
19.179
20  
6.362
0
VERTEX
10    
19.179
20  
6.372
0
VERTEX
10    
19.179
20  
6.387
0
VERTEX
10    
19.179
20  
6.406
0
VERTEX
10    
19.179
20  
6.419
0
VERTEX
10    
19.179
20  
6.434
0
VERTEX
10    
19.179
20  
6.451
0
VERTEX
10    
19.182
20  
6.462
0
VERTEX
10    
19.182
20  
6.472
0
VERTEX
10    
19.182
20  
6.501
0
VERTEX
10    
19.182
20  
6.518
0
VERTEX
10    
19.178
20  
6.539
0
VERTEX
10    
19.17
20  
6.587
0
VERTEX
10    
19.171
20  
6.646
0
VERTEX
10    
19.157
20  
6.667
0
VERTEX
10    
19.157
20  
6.684
0
VERTEX
10    
19.157
20  
6.695
0
VERTEX
10    
19.157
20  
6.71
0
VERTEX
10    
19.157
20  
6.731
0
VERTEX
10    
19.157
20  
6.75
0
VERTEX
10    
19.157
20  
6.762
0
VERTEX
10    
19.157
20  
6.77
0
VERTEX
10    
19.153
20  
6.793
0
VERTEX
10    
19.145
20  
6.808
0
VERTEX
10    
19.146
20  
6.817
0
VERTEX
10    
19.146
20  
6.827
0
VERTEX
10    
19.146
20  
6.846
0
VERTEX
10    
19.146
20  
6.854
0
VERTEX
10    
19.142
20  
6.878
0
VERTEX
10    
19.135
20  
6.894
0
VERTEX
10    
19.136
20  
6.917
0
VERTEX
10    
19.132
20  
6.937
0
VERTEX
10    
19.124
20  
6.959
0
VERTEX
10    
19.126
20  
6.979
0
VERTEX
10    
19.126
20  
6.988
0
VERTEX
10    
19.121
20  
6.998
0
VERTEX
10    
19.113
20  
7.011
0
VERTEX
10    
19.113
20  
7.03
0
VERTEX
10    
19.113
20  
7.044
0
VERTEX
10    
19.103
20  
7.054
0
VERTEX
10    
19.103
20  
7.075
0
VERTEX
10    
19.089
20  
7.098
0
VERTEX
10    
19.078
20  
7.119
0
VERTEX
10    
19.067
20  
7.119
0
VERTEX
10    
19.067
20  
7.129
0
VERTEX
10    
19.057
20  
7.129
0
VERTEX
10    
19.031
20  
7.129
0
VERTEX
10    
19.006
20  
7.129
0
VERTEX
10    
18.988
20  
7.129
0
VERTEX
10    
18.972
20  
7.129
0
VERTEX
10    
18.963
20  
7.129
0
VERTEX
10    
18.954
20  
7.118
0
VERTEX
10    
18.954
20  
7.109
0
VERTEX
10    
18.954
20  
7.085
0
VERTEX
10    
18.962
20  
7.065
0
VERTEX
10    
18.983
20  
7.034
0
VERTEX
10    
18.991
20  
6.998
0
VERTEX
10    
18.989
20  
6.948
0
VERTEX
10    
19.001
20  
6.921
0
VERTEX
10    
19.001
20  
6.895
0
VERTEX
10    
19.001
20  
6.869
0
VERTEX
10    
19.001
20  
6.844
0
VERTEX
10    
19.001
20  
6.822
0
VERTEX
10    
19.001
20  
6.798
0
VERTEX
10    
19.001
20  
6.773
0
VERTEX
10    
19.001
20  
6.749
0
VERTEX
10    
19.001
20  
6.72
0
VERTEX
10    
18.989
20  
6.698
0
VERTEX
10    
18.989
20  
6.674
0
VERTEX
10    
18.989
20  
6.646
0
VERTEX
10    
18.989
20  
6.613
0
VERTEX
10    
18.989
20  
6.579
0
VERTEX
10    
18.989
20  
6.548
0
VERTEX
10    
18.989
20  
6.519
0
VERTEX
10    
18.989
20  
6.496
0
VERTEX
10    
18.989
20  
6.481
0
VERTEX
10    
18.989
20  
6.465
0
VERTEX
10    
18.989
20  
6.455
0
VERTEX
10    
18.989
20  
6.447
0
VERTEX
10    
18.989
20  
6.432
0
VERTEX
10    
18.989
20  
6.413
0
VERTEX
10    
18.989
20  
6.399
0
VERTEX
10    
18.989
20  
6.386
0
VERTEX
10    
18.993
20  
6.374
0
VERTEX
10    
18.993
20  
6.361
0
VERTEX
10    
18.993
20  
6.347
0
VERTEX
10    
18.98
20  
6.347
0
VERTEX
10    
18.972
20  
6.343
0
VERTEX
10    
18.944
20  
6.333
0
VERTEX
10    
18.915
20  
6.335
0
VERTEX
10    
18.897
20  
6.335
0
VERTEX
10    
18.88
20  
6.335
0
VERTEX
10    
18.871
20  
6.335
0
VERTEX
10    
18.855
20  
6.335
0
VERTEX
10    
18.843
20  
6.335
0
VERTEX
10    
18.832
20  
6.335
0
VERTEX
10    
18.821
20  
6.335
0
VERTEX
10    
18.81
20  
6.335
0
VERTEX
10    
18.798
20  
6.335
0
VERTEX
10    
18.787
20  
6.335
0
VERTEX
10    
18.78
20  
6.335
0
VERTEX
10    
18.765
20  
6.331
0
VERTEX
10    
18.763
20  
6.323
0
VERTEX
10    
18.756
20  
6.324
0
VERTEX
10    
18.744
20  
6.324
0
VERTEX
10    
18.744
20  
6.337
0
VERTEX
10    
18.741
20  
6.348
0
VERTEX
10    
18.741
20  
6.359
0
VERTEX
10    
18.741
20  
6.384
0
VERTEX
10    
18.741
20  
6.395
0
VERTEX
10    
18.741
20  
6.419
0
VERTEX
10    
18.741
20  
6.436
0
VERTEX
10    
18.741
20  
6.463
0
VERTEX
10    
18.741
20  
6.49
0
VERTEX
10    
18.741
20  
6.531
0
VERTEX
10    
18.741
20  
6.553
0
VERTEX
10    
18.741
20  
6.576
0
VERTEX
10    
18.739
20  
6.621
0
VERTEX
10    
18.739
20  
6.65
0
VERTEX
10    
18.739
20  
6.686
0
VERTEX
10    
18.739
20  
6.726
0
VERTEX
10    
18.739
20  
6.75
0
VERTEX
10    
18.739
20  
6.767
0
VERTEX
10    
18.739
20  
6.785
0
VERTEX
10    
18.739
20  
6.823
0
VERTEX
10    
18.739
20  
6.86
0
VERTEX
10    
18.739
20  
6.894
0
VERTEX
10    
18.739
20  
6.927
0
VERTEX
10    
18.739
20  
6.956
0
VERTEX
10    
18.739
20  
6.993
0
VERTEX
10    
18.739
20  
7.01
0
VERTEX
10    
18.734
20  
7.036
0
VERTEX
10    
18.734
20  
7.071
0
VERTEX
10    
18.734
20  
7.114
0
VERTEX
10    
18.734
20  
7.134
0
VERTEX
10    
18.734
20  
7.162
0
VERTEX
10    
18.734
20  
7.179
0
VERTEX
10    
18.734
20  
7.201
0
VERTEX
10    
18.734
20  
7.228
0
VERTEX
10    
18.734
20  
7.248
0
VERTEX
10    
18.734
20  
7.268
0
VERTEX
10    
18.734
20  
7.288
0
VERTEX
10    
18.734
20  
7.321
0
VERTEX
10    
18.734
20  
7.368
0
VERTEX
10    
18.734
20  
7.421
0
VERTEX
10    
18.734
20  
7.444
0
VERTEX
10    
18.734
20  
7.474
0
VERTEX
10    
18.738
20  
7.502
0
VERTEX
10    
18.738
20  
7.538
0
VERTEX
10    
18.738
20  
7.568
0
VERTEX
10    
18.738
20  
7.607
0
VERTEX
10    
18.75
20  
7.607
0
VERTEX
10    
18.75
20  
7.63
0
VERTEX
10    
18.75
20  
7.665
0
VERTEX
10    
18.75
20  
7.698
0
VERTEX
10    
18.75
20  
7.733
0
VERTEX
10    
18.75
20  
7.761
0
VERTEX
10    
18.75
20  
7.781
0
VERTEX
10    
18.75
20  
7.816
0
VERTEX
10    
18.76
20  
7.865
0
VERTEX
10    
18.76
20  
7.904
0
VERTEX
10    
18.76
20  
7.936
0
VERTEX
10    
18.76
20  
7.959
0
VERTEX
10    
18.76
20  
7.975
0
VERTEX
10    
18.76
20  
7.985
0
VERTEX
10    
18.76
20  
8.001
0
VERTEX
10    
18.764
20  
8.011
0
VERTEX
10    
18.764
20  
8.023
0
VERTEX
10    
18.764
20  
8.038
0
VERTEX
10    
18.764
20  
8.05
0
VERTEX
10    
18.764
20  
8.064
0
VERTEX
10    
18.764
20  
8.077
0
VERTEX
10    
18.762
20  
8.093
0
VERTEX
10    
18.758
20  
8.128
0
VERTEX
10    
18.75
20  
8.146
0
VERTEX
10    
18.747
20  
8.135
0
VERTEX
10    
18.758
20  
8.135
0
VERTEX
10    
18.758
20  
8.117
0
VERTEX
10    
18.77
20  
8.117
0
VERTEX
10    
18.77
20  
8.106
0
VERTEX
10    
18.779
20  
8.106
0
VERTEX
10    
18.808
20  
8.106
0
VERTEX
10    
18.838
20  
8.106
0
VERTEX
10    
18.88
20  
8.106
0
VERTEX
10    
18.918
20  
8.106
0
VERTEX
10    
18.929
20  
8.106
0
VERTEX
10    
18.949
20  
8.106
0     
SEQEND
0 
POLYLINE
8     
PlasmaCutterPath
70  
0  
6 
Continuous
40    
0.1
41 
0.1   
43
0.1
0
VERTEX
10    
20.16
20  
8.08
0
VERTEX
10    
20.149
20  
8.084
0
VERTEX
10    
20.16
20  
8.085
0
VERTEX
10    
20.174
20  
8.085
0
VERTEX
10    
20.185
20  
8.085
0
VERTEX
10    
20.195
20  
8.085
0
VERTEX
10    
20.213
20  
8.085
0
VERTEX
10    
20.226
20  
8.085
0
VERTEX
10    
20.242
20  
8.085
0
VERTEX
10    
20.26
20  
8.085
0
VERTEX
10    
20.273
20  
8.085
0
VERTEX
10    
20.287
20  
8.085
0
VERTEX
10    
20.301
20  
8.085
0
VERTEX
10    
20.316
20  
8.085
0
VERTEX
10    
20.326
20  
8.085
0
VERTEX
10    
20.343
20  
8.085
0
VERTEX
10    
20.356
20  
8.085
0
VERTEX
10    
20.372
20  
8.085
0
VERTEX
10    
20.372
20  
8.095
0
VERTEX
10    
20.378
20  
8.087
0
VERTEX
10    
20.378
20  
8.074
0
VERTEX
10    
20.378
20  
8.061
0
VERTEX
10    
20.378
20  
8.051
0
VERTEX
10    
20.378
20  
8.029
0
VERTEX
10    
20.378
20  
8.019
0
VERTEX
10    
20.378
20  
8.009
0
VERTEX
10    
20.378
20  
7.991
0
VERTEX
10    
20.389
20  
7.991
0
VERTEX
10    
20.389
20  
7.971
0
VERTEX
10    
20.389
20  
7.956
0
VERTEX
10    
20.389
20  
7.936
0
VERTEX
10    
20.389
20  
7.904
0
VERTEX
10    
20.389
20  
7.871
0
VERTEX
10    
20.403
20  
7.82
0
VERTEX
10    
20.401
20  
7.791
0
VERTEX
10    
20.401
20  
7.758
0
VERTEX
10    
20.412
20  
7.731
0
VERTEX
10    
20.412
20  
7.697
0
VERTEX
10    
20.412
20  
7.67
0
VERTEX
10    
20.412
20  
7.65
0
VERTEX
10    
20.422
20  
7.632
0
VERTEX
10    
20.422
20  
7.613
0
VERTEX
10    
20.422
20  
7.594
0
VERTEX
10    
20.422
20  
7.571
0
VERTEX
10    
20.435
20  
7.534
0
VERTEX
10    
20.435
20  
7.513
0
VERTEX
10    
20.435
20  
7.488
0
VERTEX
10    
20.435
20  
7.461
0
VERTEX
10    
20.446
20  
7.432
0
VERTEX
10    
20.446
20  
7.393
0
VERTEX
10    
20.446
20  
7.349
0
VERTEX
10    
20.446
20  
7.312
0
VERTEX
10    
20.446
20  
7.288
0
VERTEX
10    
20.446
20  
7.27
0
VERTEX
10    
20.446
20  
7.254
0
VERTEX
10    
20.446
20  
7.238
0
VERTEX
10    
20.446
20  
7.22
0
VERTEX
10    
20.458
20  
7.2
0
VERTEX
10    
20.458
20  
7.186
0
VERTEX
10    
20.458
20  
7.163
0
VERTEX
10    
20.458
20  
7.15
0
VERTEX
10    
20.458
20  
7.136
0
VERTEX
10    
20.458
20  
7.12
0
VERTEX
10    
20.458
20  
7.098
0
VERTEX
10    
20.469
20  
7.072
0
VERTEX
10    
20.469
20  
7.049
0
VERTEX
10    
20.469
20  
7.022
0
VERTEX
10    
20.469
20  
7.001
0
VERTEX
10    
20.469
20  
6.982
0
VERTEX
10    
20.48
20  
6.971
0
VERTEX
10    
20.48
20  
6.958
0
VERTEX
10    
20.48
20  
6.942
0
VERTEX
10    
20.48
20  
6.901
0
VERTEX
10    
20.48
20  
6.87
0
VERTEX
10    
20.48
20  
6.84
0
VERTEX
10    
20.48
20  
6.82
0
VERTEX
10    
20.48
20  
6.803
0
VERTEX
10    
20.48
20  
6.785
0
VERTEX
10    
20.48
20  
6.767
0
VERTEX
10    
20.488
20  
6.749
0
VERTEX
10    
20.488
20  
6.736
0
VERTEX
10    
20.488
20  
6.723
0
VERTEX
10    
20.488
20  
6.704
0
VERTEX
10    
20.488
20  
6.685
0
VERTEX
10    
20.492
20  
6.677
0
VERTEX
10    
20.501
20  
6.653
0
VERTEX
10    
20.499
20  
6.632
0
VERTEX
10    
20.499
20  
6.605
0
VERTEX
10    
20.513
20  
6.562
0
VERTEX
10    
20.513
20  
6.548
0
VERTEX
10    
20.513
20  
6.532
0
VERTEX
10    
20.513
20  
6.52
0
VERTEX
10    
20.523
20  
6.52
0
VERTEX
10    
20.523
20  
6.502
0
VERTEX
10    
20.523
20  
6.491
0
VERTEX
10    
20.523
20  
6.48
0
VERTEX
10    
20.523
20  
6.469
0
VERTEX
10    
20.523
20  
6.455
0
VERTEX
10    
20.538
20  
6.455
0
VERTEX
10    
20.538
20  
6.432
0
VERTEX
10    
20.538
20  
6.414
0
VERTEX
10    
20.538
20  
6.403
0
VERTEX
10    
20.549
20  
6.403
0
VERTEX
10    
20.549
20  
6.39
0
VERTEX
10    
20.561
20  
6.378
0
VERTEX
10    
20.568
20  
6.368
0
VERTEX
10    
20.557
20  
6.366
0
VERTEX
10    
20.532
20  
6.348
0
VERTEX
10    
20.515
20  
6.348
0
VERTEX
10    
20.497
20  
6.348
0
VERTEX
10    
20.48
20  
6.333
0
VERTEX
10    
20.461
20  
6.333
0
VERTEX
10    
20.448
20  
6.333
0
VERTEX
10    
20.434
20  
6.333
0
VERTEX
10    
20.419
20  
6.333
0
VERTEX
10    
20.4
20  
6.333
0
VERTEX
10    
20.388
20  
6.33
0
VERTEX
10    
20.375
20  
6.326
0
VERTEX
10    
20.361
20  
6.326
0
VERTEX
10    
20.361
20  
6.337
0
VERTEX
10    
20.347
20  
6.337
0
VERTEX
10    
20.347
20  
6.348
0
VERTEX
10    
20.347
20  
6.362
0
VERTEX
10    
20.347
20  
6.375
0
VERTEX
10    
20.347
20  
6.387
0
VERTEX
10    
20.338
20  
6.387
0
VERTEX
10    
20.338
20  
6.404
0
VERTEX
10    
20.338
20  
6.415
0
VERTEX
10    
20.338
20  
6.433
0
VERTEX
10    
20.338
20  
6.444
0
VERTEX
10    
20.338
20  
6.455
0
VERTEX
10    
20.338
20  
6.472
0
VERTEX
10    
20.338
20  
6.492
0
VERTEX
10    
20.338
20  
6.509
0
VERTEX
10    
20.338
20  
6.517
0
VERTEX
10    
20.338
20  
6.546
0
VERTEX
10    
20.338
20  
6.588
0
VERTEX
10    
20.338
20  
6.634
0
VERTEX
10    
20.338
20  
6.65
0
VERTEX
10    
20.326
20  
6.665
0
VERTEX
10    
20.326
20  
6.682
0
VERTEX
10    
20.326
20  
6.697
0
VERTEX
10    
20.326
20  
6.709
0
VERTEX
10    
20.313
20  
6.709
0
VERTEX
10    
20.313
20  
6.72
0
VERTEX
10    
20.297
20  
6.72
0
VERTEX
10    
20.283
20  
6.72
0
VERTEX
10    
20.269
20  
6.72
0
VERTEX
10    
20.248
20  
6.72
0
VERTEX
10    
20.226
20  
6.72
0
VERTEX
10    
20.206
20  
6.72
0
VERTEX
10    
20.167
20  
6.72
0
VERTEX
10    
20.148
20  
6.72
0
VERTEX
10    
20.128
20  
6.72
0
VERTEX
10    
20.119
20  
6.72
0
VERTEX
10    
20.104
20  
6.72
0
VERTEX
10    
20.094
20  
6.72
0
VERTEX
10    
20.082
20  
6.717
0
VERTEX
10    
20.082
20  
6.699
0
VERTEX
10    
20.069
20  
6.677
0
VERTEX
10    
20.069
20  
6.65
0
VERTEX
10    
20.069
20  
6.625
0
VERTEX
10    
20.069
20  
6.593
0
VERTEX
10    
20.069
20  
6.561
0
VERTEX
10    
20.069
20  
6.538
0
VERTEX
10    
20.069
20  
6.517
0
VERTEX
10    
20.057
20  
6.499
0
VERTEX
10    
20.057
20  
6.483
0
VERTEX
10    
20.057
20  
6.469
0
VERTEX
10    
20.057
20  
6.454
0
VERTEX
10    
20.046
20  
6.454
0
VERTEX
10    
20.046
20  
6.435
0
VERTEX
10    
20.046
20  
6.423
0
VERTEX
10    
20.046
20  
6.411
0
VERTEX
10    
20.035
20  
6.398
0
VERTEX
10    
20.035
20  
6.39
0
VERTEX
10    
20.031
20  
6.375
0
VERTEX
10    
20.023
20  
6.371
0
VERTEX
10    
20.025
20  
6.357
0
VERTEX
10    
20.025
20  
6.344
0
VERTEX
10    
20.02
20  
6.336
0
VERTEX
10    
20.01
20  
6.321
0
VERTEX
10    
20.012
20  
6.313
0
VERTEX
10    
20.002
20  
6.313
0
VERTEX
10    
19.989
20  
6.313
0
VERTEX
10    
19.978
20  
6.313
0
VERTEX
10    
19.978
20  
6.324
0
VERTEX
10    
19.964
20  
6.324
0
VERTEX
10    
19.955
20  
6.324
0
VERTEX
10    
19.934
20  
6.324
0
VERTEX
10    
19.925
20  
6.324
0
VERTEX
10    
19.913
20  
6.324
0
VERTEX
10    
19.9
20  
6.324
0
VERTEX
10    
19.889
20  
6.324
0
VERTEX
10    
19.877
20  
6.328
0
VERTEX
10    
19.853
20  
6.328
0
VERTEX
10    
19.823
20  
6.328
0
VERTEX
10    
19.768
20  
6.328
0
VERTEX
10    
19.76
20  
6.328
0
VERTEX
10    
19.749
20  
6.328
0
VERTEX
10    
19.738
20  
6.328
0
VERTEX
10    
19.72
20  
6.328
0
VERTEX
10    
19.705
20  
6.328
0
VERTEX
10    
19.694
20  
6.326
0
VERTEX
10    
19.694
20  
6.341
0
VERTEX
10    
19.694
20  
6.353
0
VERTEX
10    
19.705
20  
6.373
0
VERTEX
10    
19.709
20  
6.382
0
VERTEX
10    
19.717
20  
6.4
0
VERTEX
10    
19.731
20  
6.413
0
VERTEX
10    
19.731
20  
6.424
0
VERTEX
10    
19.731
20  
6.435
0
VERTEX
10    
19.741
20  
6.449
0
VERTEX
10    
19.741
20  
6.475
0
VERTEX
10    
19.757
20  
6.5
0
VERTEX
10    
19.757
20  
6.52
0
VERTEX
10    
19.769
20  
6.555
0
VERTEX
10    
19.769
20  
6.576
0
VERTEX
10    
19.78
20  
6.628
0
VERTEX
10    
19.78
20  
6.649
0
VERTEX
10    
19.79
20  
6.671
0
VERTEX
10    
19.79
20  
6.693
0
VERTEX
10    
19.79
20  
6.732
0
VERTEX
10    
19.81
20  
6.77
0
VERTEX
10    
19.82
20  
6.797
0
VERTEX
10    
19.82
20  
6.817
0
VERTEX
10    
19.834
20  
6.845
0
VERTEX
10    
19.834
20  
6.884
0
VERTEX
10    
19.851
20  
6.914
0
VERTEX
10    
19.851
20  
6.94
0
VERTEX
10    
19.863
20  
6.964
0
VERTEX
10    
19.863
20  
6.994
0
VERTEX
10    
19.863
20  
7.047
0
VERTEX
10    
19.874
20  
7.068
0
VERTEX
10    
19.874
20  
7.086
0
VERTEX
10    
19.874
20  
7.1
0
VERTEX
10    
19.888
20  
7.127
0
VERTEX
10    
19.888
20  
7.146
0
VERTEX
10    
19.888
20  
7.166
0
VERTEX
10    
19.902
20  
7.184
0
VERTEX
10    
19.902
20  
7.195
0
VERTEX
10    
19.902
20  
7.207
0
VERTEX
10    
19.91
20  
7.207
0
VERTEX
10    
19.922
20  
7.209
0
VERTEX
10    
19.945
20  
7.209
0
VERTEX
10    
19.965
20  
7.209
0
VERTEX
10    
19.98
20  
7.22
0
VERTEX
10    
19.993
20  
7.22
0
VERTEX
10    
20.008
20  
7.22
0
VERTEX
10    
20.025
20  
7.22
0
VERTEX
10    
20.042
20  
7.227
0
VERTEX
10    
20.053
20  
7.227
0
VERTEX
10    
20.063
20  
7.227
0
VERTEX
10    
20.071
20  
7.227
0
VERTEX
10    
20.091
20  
7.227
0
VERTEX
10    
20.103
20  
7.228
0
VERTEX
10    
20.117
20  
7.229
0
VERTEX
10    
20.13
20  
7.229
0
VERTEX
10    
20.141
20  
7.229
0
VERTEX
10    
20.157
20  
7.229
0
VERTEX
10    
20.157
20  
7.216
0
VERTEX
10    
20.143
20  
7.216
0
VERTEX
10    
20.143
20  
7.199
0
VERTEX
10    
20.13
20  
7.183
0
VERTEX
10    
20.13
20  
7.165
0
VERTEX
10    
20.13
20  
7.156
0
VERTEX
10    
20.13
20  
7.133
0
VERTEX
10    
20.13
20  
7.119
0
VERTEX
10    
20.13
20  
7.101
0
VERTEX
10    
20.126
20  
7.083
0
VERTEX
10    
20.117
20  
7.063
0
VERTEX
10    
20.118
20  
7.046
0
VERTEX
10    
20.118
20  
7.032
0
VERTEX
10    
20.114
20  
7.017
0
VERTEX
10    
20.105
20  
7.005
0
VERTEX
10    
20.107
20  
6.991
0
VERTEX
10    
20.103
20  
6.976
0
VERTEX
10    
20.095
20  
6.973
0
VERTEX
10    
20.096
20  
6.963
0
VERTEX
10    
20.087
20  
6.965
0
VERTEX
10    
20.094
20  
6.959
0
VERTEX
10    
20.126
20  
6.959
0
VERTEX
10    
20.17
20  
6.959
0
VERTEX
10    
20.202
20  
6.955
0
VERTEX
10    
20.209
20  
6.946
0
VERTEX
10    
20.225
20  
6.948
0
VERTEX
10    
20.239
20  
6.948
0
VERTEX
10    
20.256
20  
6.938
0
VERTEX
10    
20.27
20  
6.938
0
VERTEX
10    
20.277
20  
6.934
0
VERTEX
10    
20.277
20  
6.942
0
VERTEX
10    
20.277
20  
6.959
0
VERTEX
10    
20.277
20  
6.967
0
VERTEX
10    
20.277
20  
7
0
VERTEX
10    
20.277
20  
7.057
0
VERTEX
10    
20.277
20  
7.087
0
VERTEX
10    
20.288
20  
7.105
0
VERTEX
10    
20.288
20  
7.113
0
VERTEX
10    
20.288
20  
7.137
0
VERTEX
10    
20.288
20  
7.163
0
VERTEX
10    
20.288
20  
7.19
0
VERTEX
10    
20.288
20  
7.208
0
VERTEX
10    
20.288
20  
7.216
0
VERTEX
10    
20.288
20  
7.227
0
VERTEX
10    
20.288
20  
7.236
0
VERTEX
10    
20.286
20  
7.26
0
VERTEX
10    
20.28
20  
7.28
0
VERTEX
10    
20.281
20  
7.308
0
VERTEX
10    
20.281
20  
7.328
0
VERTEX
10    
20.281
20  
7.355
0
VERTEX
10    
20.281
20  
7.374
0
VERTEX
10    
20.281
20  
7.389
0
VERTEX
10    
20.281
20  
7.438
0
VERTEX
10    
20.281
20  
7.467
0
VERTEX
10    
20.281
20  
7.485
0
VERTEX
10    
20.27
20  
7.502
0
VERTEX
10    
20.27
20  
7.523
0
VERTEX
10    
20.258
20  
7.539
0
VERTEX
10    
20.252
20  
7.547
0
VERTEX
10    
20.24
20  
7.547
0
VERTEX
10    
20.228
20  
7.528
0
VERTEX
10    
20.202
20  
7.528
0
VERTEX
10    
20.182
20  
7.512
0
VERTEX
10    
20.173
20  
7.514
0
VERTEX
10    
20.158
20  
7.514
0
VERTEX
10    
20.158
20  
7.499
0
VERTEX
10    
20.158
20  
7.483
0
VERTEX
10    
20.158
20  
7.456
0
VERTEX
10    
20.158
20  
7.422
0
VERTEX
10    
20.174
20  
7.386
0
VERTEX
10    
20.174
20  
7.361
0
VERTEX
10    
20.174
20  
7.341
0
VERTEX
10    
20.174
20  
7.325
0
VERTEX
10    
20.174
20  
7.308
0
VERTEX
10    
20.174
20  
7.297
0
VERTEX
10    
20.174
20  
7.285
0
VERTEX
10    
20.166
20  
7.285
0
VERTEX
10    
20.144
20  
7.285
0
VERTEX
10    
20.12
20  
7.289
0
VERTEX
10    
20.09
20  
7.297
0
VERTEX
10    
20.076
20  
7.296
0
VERTEX
10    
20.066
20  
7.296
0
VERTEX
10    
20.054
20  
7.296
0
VERTEX
10    
20.045
20  
7.304
0
VERTEX
10    
20.02
20  
7.303
0
VERTEX
10    
20.011
20  
7.303
0
VERTEX
10    
20.002
20  
7.303
0
VERTEX
10    
19.991
20  
7.305
0
VERTEX
10    
19.972
20  
7.305
0
VERTEX
10    
19.955
20  
7.305
0
VERTEX
10    
19.944
20  
7.305
0
VERTEX
10    
19.944
20  
7.295
0
VERTEX
10    
19.942
20  
7.307
0
VERTEX
10    
19.942
20  
7.329
0
VERTEX
10    
19.942
20  
7.358
0
VERTEX
10    
19.952
20  
7.371
0
VERTEX
10    
19.952
20  
7.382
0
VERTEX
10    
19.952
20  
7.416
0
VERTEX
10    
19.952
20  
7.468
0
VERTEX
10    
19.952
20  
7.492
0
VERTEX
10    
19.952
20  
7.509
0
VERTEX
10    
19.963
20  
7.53
0
VERTEX
10    
19.963
20  
7.549
0
VERTEX
10    
19.963
20  
7.558
0
VERTEX
10    
19.963
20  
7.584
0
VERTEX
10    
19.967
20  
7.601
0
VERTEX
10    
19.974
20  
7.631
0
VERTEX
10    
19.974
20  
7.642
0
VERTEX
10    
19.979
20  
7.67
0
VERTEX
10    
19.989
20  
7.684
0
VERTEX
10    
19.987
20  
7.705
0
VERTEX
10    
19.987
20  
7.721
0
VERTEX
10    
19.987
20  
7.734
0
VERTEX
10    
19.991
20  
7.749
0
VERTEX
10    
20
20  
7.767
0
VERTEX
10    
19.998
20  
7.791
0
VERTEX
10    
19.998
20  
7.848
0
VERTEX
10    
19.998
20  
7.878
0
VERTEX
10    
20.009
20  
7.917
0
VERTEX
10    
20.009
20  
7.934
0
VERTEX
10    
20.009
20  
7.944
0
VERTEX
10    
20.009
20  
7.97
0
VERTEX
10    
20.009
20  
7.983
0
VERTEX
10    
20.009
20  
8.002
0
VERTEX
10    
20.01
20  
8.017
0
VERTEX
10    
20.013
20  
8.045
0
VERTEX
10    
20.012
20  
8.054
0
VERTEX
10    
20.012
20  
8.068
0
VERTEX
10    
20.012
20  
8.079
0
VERTEX
10    
20.023
20  
8.079
0
VERTEX
10    
20.023
20  
8.089
0
VERTEX
10    
20.036
20  
8.096
0
VERTEX
10    
20.078
20  
8.111
0
VERTEX
10    
20.124
20  
8.109
0
VERTEX
10    
20.175
20  
8.109
0
VERTEX
10    
20.217
20  
8.109
0
VERTEX
10    
20.226
20  
8.109
0
VERTEX
10    
20.233
20  
8.109
0
VERTEX
10    
20.249
20  
8.11
0
VERTEX
10    
20.261
20  
8.11
0
VERTEX
10    
20.261
20  
8.099
0
VERTEX
10    
20.272
20  
8.099
0     
SEQEND
0 
POLYLINE
8     
PlasmaCutterPath
70  
0  
6 
Continuous
40    
0.1
41 
0.1   
43
0.1
0
VERTEX
10    
20.929
20  
8.032
0
VERTEX
10    
20.919
20  
8.032
0
VERTEX
10    
20.919
20  
8.04
0
VERTEX
10    
20.928
20  
8.04
0
VERTEX
10    
20.955
20  
8.04
0
VERTEX
10    
20.987
20  
8.04
0
VERTEX
10    
21.019
20  
8.04
0
VERTEX
10    
21.032
20  
8.04
0
VERTEX
10    
21.041
20  
8.04
0
VERTEX
10    
21.052
20  
8.04
0
VERTEX
10    
21.056
20  
8.031
0
VERTEX
10    
21.063
20  
8.021
0
VERTEX
10    
21.081
20  
7.994
0
VERTEX
10    
21.086
20  
7.977
0
VERTEX
10    
21.102
20  
7.977
0
VERTEX
10    
21.102
20  
7.959
0
VERTEX
10    
21.102
20  
7.946
0
VERTEX
10    
21.115
20  
7.935
0
VERTEX
10    
21.115
20  
7.918
0
VERTEX
10    
21.115
20  
7.896
0
VERTEX
10    
21.132
20  
7.869
0
VERTEX
10    
21.132
20  
7.842
0
VERTEX
10    
21.145
20  
7.815
0
VERTEX
10    
21.145
20  
7.788
0
VERTEX
10    
21.145
20  
7.763
0
VERTEX
10    
21.161
20  
7.735
0
VERTEX
10    
21.161
20  
7.708
0
VERTEX
10    
21.175
20  
7.679
0
VERTEX
10    
21.175
20  
7.66
0
VERTEX
10    
21.187
20  
7.644
0
VERTEX
10    
21.187
20  
7.631
0
VERTEX
10    
21.187
20  
7.615
0
VERTEX
10    
21.198
20  
7.597
0
VERTEX
10    
21.198
20  
7.581
0
VERTEX
10    
21.21
20  
7.563
0
VERTEX
10    
21.21
20  
7.55
0
VERTEX
10    
21.21
20  
7.535
0
VERTEX
10    
21.222
20  
7.523
0
VERTEX
10    
21.222
20  
7.504
0
VERTEX
10    
21.222
20  
7.483
0
VERTEX
10    
21.236
20  
7.459
0
VERTEX
10    
21.236
20  
7.437
0
VERTEX
10    
21.236
20  
7.416
0
VERTEX
10    
21.248
20  
7.398
0
VERTEX
10    
21.248
20  
7.381
0
VERTEX
10    
21.248
20  
7.359
0
VERTEX
10    
21.248
20  
7.334
0
VERTEX
10    
21.261
20  
7.319
0
VERTEX
10    
21.261
20  
7.306
0
VERTEX
10    
21.261
20  
7.297
0
VERTEX
10    
21.261
20  
7.273
0
VERTEX
10    
21.266
20  
7.259
0
VERTEX
10    
21.276
20  
7.245
0
VERTEX
10    
21.274
20  
7.236
0
VERTEX
10    
21.274
20  
7.218
0
VERTEX
10    
21.285
20  
7.205
0
VERTEX
10    
21.285
20  
7.197
0
VERTEX
10    
21.285
20  
7.176
0
VERTEX
10    
21.291
20  
7.166
0
VERTEX
10    
21.302
20  
7.159
0
VERTEX
10    
21.3
20  
7.142
0
VERTEX
10    
21.313
20  
7.142
0
VERTEX
10    
21.313
20  
7.131
0
VERTEX
10    
21.313
20  
7.145
0
VERTEX
10    
21.317
20  
7.182
0
VERTEX
10    
21.325
20  
7.208
0
VERTEX
10    
21.323
20  
7.262
0
VERTEX
10    
21.339
20  
7.309
0
VERTEX
10    
21.339
20  
7.373
0
VERTEX
10    
21.339
20  
7.449
0
VERTEX
10    
21.351
20  
7.493
0
VERTEX
10    
21.351
20  
7.526
0
VERTEX
10    
21.351
20  
7.547
0
VERTEX
10    
21.351
20  
7.588
0
VERTEX
10    
21.34
20  
7.609
0
VERTEX
10    
21.34
20  
7.632
0
VERTEX
10    
21.34
20  
7.648
0
VERTEX
10    
21.329
20  
7.665
0
VERTEX
10    
21.329
20  
7.702
0
VERTEX
10    
21.329
20  
7.735
0
VERTEX
10    
21.329
20  
7.764
0
VERTEX
10    
21.329
20  
7.783
0
VERTEX
10    
21.329
20  
7.813
0
VERTEX
10    
21.319
20  
7.846
0
VERTEX
10    
21.319
20  
7.876
0
VERTEX
10    
21.319
20  
7.898
0
VERTEX
10    
21.319
20  
7.917
0
VERTEX
10    
21.319
20  
7.933
0
VERTEX
10    
21.319
20  
7.954
0
VERTEX
10    
21.332
20  
7.972
0
VERTEX
10    
21.332
20  
7.983
0
VERTEX
10    
21.332
20  
7.997
0
VERTEX
10    
21.332
20  
8.01
0
VERTEX
10    
21.332
20  
8.022
0
VERTEX
10    
21.339
20  
8.031
0
VERTEX
10    
21.338
20  
8.05
0
VERTEX
10    
21.338
20  
8.059
0
VERTEX
10    
21.35
20  
8.055
0
VERTEX
10    
21.388
20  
8.046
0
VERTEX
10    
21.426
20  
8.043
0
VERTEX
10    
21.456
20  
8.032
0
VERTEX
10    
21.467
20  
8.034
0
VERTEX
10    
21.482
20  
8.034
0
VERTEX
10    
21.494
20  
8.034
0
VERTEX
10    
21.503
20  
8.034
0
VERTEX
10    
21.525
20  
8.034
0
VERTEX
10    
21.538
20  
8.034
0
VERTEX
10    
21.559
20  
8.033
0
VERTEX
10    
21.568
20  
8.032
0
VERTEX
10    
21.578
20  
8.032
0
VERTEX
10    
21.586
20  
8.032
0
VERTEX
10    
21.587
20  
8.024
0
VERTEX
10    
21.591
20  
8.004
0
VERTEX
10    
21.597
20  
7.977
0
VERTEX
10    
21.609
20  
7.951
0
VERTEX
10    
21.609
20  
7.924
0
VERTEX
10    
21.609
20  
7.891
0
VERTEX
10    
21.609
20  
7.869
0
VERTEX
10    
21.609
20  
7.839
0
VERTEX
10    
21.609
20  
7.799
0
VERTEX
10    
21.609
20  
7.772
0
VERTEX
10    
21.609
20  
7.738
0
VERTEX
10    
21.621
20  
7.711
0
VERTEX
10    
21.621
20  
7.686
0
VERTEX
10    
21.621
20  
7.659
0
VERTEX
10    
21.621
20  
7.632
0
VERTEX
10    
21.621
20  
7.602
0
VERTEX
10    
21.621
20  
7.573
0
VERTEX
10    
21.621
20  
7.551
0
VERTEX
10    
21.621
20  
7.52
0
VERTEX
10    
21.621
20  
7.486
0
VERTEX
10    
21.621
20  
7.444
0
VERTEX
10    
21.621
20  
7.381
0
VERTEX
10    
21.609
20  
7.331
0
VERTEX
10    
21.609
20  
7.293
0
VERTEX
10    
21.609
20  
7.264
0
VERTEX
10    
21.609
20  
7.237
0
VERTEX
10    
21.597
20  
7.196
0
VERTEX
10    
21.598
20  
7.163
0
VERTEX
10    
21.598
20  
7.142
0
VERTEX
10    
21.598
20  
7.127
0
VERTEX
10    
21.598
20  
7.109
0
VERTEX
10    
21.598
20  
7.085
0
VERTEX
10    
21.598
20  
7.055
0
VERTEX
10    
21.587
20  
7.017
0
VERTEX
10    
21.587
20  
6.982
0
VERTEX
10    
21.587
20  
6.946
0
VERTEX
10    
21.587
20  
6.92
0
VERTEX
10    
21.587
20  
6.896
0
VERTEX
10    
21.587
20  
6.874
0
VERTEX
10    
21.587
20  
6.848
0
VERTEX
10    
21.587
20  
6.819
0
VERTEX
10    
21.587
20  
6.798
0
VERTEX
10    
21.574
20  
6.782
0
VERTEX
10    
21.574
20  
6.767
0
VERTEX
10    
21.574
20  
6.744
0
VERTEX
10    
21.574
20  
6.724
0
VERTEX
10    
21.574
20  
6.696
0
VERTEX
10    
21.574
20  
6.669
0
VERTEX
10    
21.574
20  
6.636
0
VERTEX
10    
21.563
20  
6.619
0
VERTEX
10    
21.563
20  
6.59
0
VERTEX
10    
21.563
20  
6.573
0
VERTEX
10    
21.563
20  
6.547
0
VERTEX
10    
21.563
20  
6.532
0
VERTEX
10    
21.563
20  
6.513
0
VERTEX
10    
21.563
20  
6.498
0
VERTEX
10    
21.563
20  
6.487
0
VERTEX
10    
21.563
20  
6.464
0
VERTEX
10    
21.563
20  
6.45
0
VERTEX
10    
21.563
20  
6.439
0
VERTEX
10    
21.563
20  
6.431
0
VERTEX
10    
21.563
20  
6.416
0
VERTEX
10    
21.563
20  
6.396
0
VERTEX
10    
21.563
20  
6.378
0
VERTEX
10    
21.563
20  
6.37
0
VERTEX
10    
21.563
20  
6.351
0
VERTEX
10    
21.563
20  
6.339
0
VERTEX
10    
21.563
20  
6.328
0
VERTEX
10    
21.563
20  
6.318
0
VERTEX
10    
21.559
20  
6.306
0
VERTEX
10    
21.559
20  
6.294
0
VERTEX
10    
21.559
20  
6.28
0
VERTEX
10    
21.545
20  
6.267
0
VERTEX
10    
21.534
20  
6.267
0
VERTEX
10    
21.523
20  
6.267
0
VERTEX
10    
21.506
20  
6.267
0
VERTEX
10    
21.491
20  
6.267
0
VERTEX
10    
21.476
20  
6.261
0
VERTEX
10    
21.462
20  
6.261
0
VERTEX
10    
21.449
20  
6.261
0
VERTEX
10    
21.437
20  
6.261
0
VERTEX
10    
21.434
20  
6.278
0     
SEQEND
0 
POLYLINE
8     
PlasmaCutterPath
70  
0  
6 
Continuous
40    
0.1
41 
0.1   
43
0.1
0
VERTEX
10    
20.928
20  
8.037
0
VERTEX
10    
20.94
20  
8.038
0
VERTEX
10    
20.962
20  
8.038
0
VERTEX
10    
20.994
20  
8.038
0
VERTEX
10    
21.021
20  
8.038
0
VERTEX
10    
21.031
20  
8.038
0
VERTEX
10    
21.042
20  
8.041
0
VERTEX
10    
21.042
20  
8.026
0
VERTEX
10    
21.054
20  
8.026
0
VERTEX
10    
21.054
20  
8.004
0
VERTEX
10    
21.07
20  
7.991
0
VERTEX
10    
21.07
20  
7.979
0
VERTEX
10    
21.087
20  
7.966
0
VERTEX
10    
21.087
20  
7.949
0
VERTEX
10    
21.1
20  
7.949
0
VERTEX
10    
21.1
20  
7.926
0
VERTEX
10    
21.1
20  
7.91
0
VERTEX
10    
21.115
20  
7.891
0
VERTEX
10    
21.115
20  
7.873
0
VERTEX
10    
21.128
20  
7.857
0
VERTEX
10    
21.128
20  
7.844
0
VERTEX
10    
21.128
20  
7.825
0
VERTEX
10    
21.128
20  
7.798
0
VERTEX
10    
21.141
20  
7.776
0
VERTEX
10    
21.141
20  
7.745
0
VERTEX
10    
21.141
20  
7.729
0
VERTEX
10    
21.157
20  
7.708
0
VERTEX
10    
21.157
20  
7.692
0
VERTEX
10    
21.157
20  
7.676
0
VERTEX
10    
21.17
20  
7.655
0
VERTEX
10    
21.17
20  
7.635
0
VERTEX
10    
21.183
20  
7.619
0
VERTEX
10    
21.183
20  
7.604
0
VERTEX
10    
21.193
20  
7.59
0
VERTEX
10    
21.193
20  
7.575
0
VERTEX
10    
21.193
20  
7.555
0
VERTEX
10    
21.208
20  
7.525
0
VERTEX
10    
21.211
20  
7.503
0
VERTEX
10    
21.22
20  
7.482
0
VERTEX
10    
21.223
20  
7.461
0
VERTEX
10    
21.233
20  
7.438
0
VERTEX
10    
21.236
20  
7.41
0
VERTEX
10    
21.244
20  
7.363
0
VERTEX
10    
21.255
20  
7.339
0
VERTEX
10    
21.255
20  
7.321
0
VERTEX
10    
21.255
20  
7.306
0
VERTEX
10    
21.266
20  
7.288
0
VERTEX
10    
21.266
20  
7.263
0
VERTEX
10    
21.28
20  
7.238
0
VERTEX
10    
21.28
20  
7.216
0
VERTEX
10    
21.28
20  
7.2
0
VERTEX
10    
21.293
20  
7.189
0
VERTEX
10    
21.293
20  
7.175
0
VERTEX
10    
21.303
20  
7.156
0
VERTEX
10    
21.303
20  
7.145
0
VERTEX
10    
21.314
20  
7.145
0
VERTEX
10    
21.314
20  
7.135
0
VERTEX
10    
21.316
20  
7.143
0
VERTEX
10    
21.316
20  
7.168
0
VERTEX
10    
21.322
20  
7.191
0
VERTEX
10    
21.331
20  
7.224
0
VERTEX
10    
21.331
20  
7.26
0
VERTEX
10    
21.331
20  
7.299
0
VERTEX
10    
21.347
20  
7.346
0
VERTEX
10    
21.347
20  
7.384
0
VERTEX
10    
21.347
20  
7.415
0
VERTEX
10    
21.347
20  
7.446
0
VERTEX
10    
21.347
20  
7.48
0
VERTEX
10    
21.347
20  
7.518
0
VERTEX
10    
21.347
20  
7.532
0
VERTEX
10    
21.347
20  
7.544
0
VERTEX
10    
21.347
20  
7.559
0
VERTEX
10    
21.347
20  
7.576
0
VERTEX
10    
21.347
20  
7.589
0
VERTEX
10    
21.347
20  
7.607
0
VERTEX
10    
21.347
20  
7.624
0
VERTEX
10    
21.338
20  
7.642
0
VERTEX
10    
21.338
20  
7.653
0
VERTEX
10    
21.338
20  
7.676
0
VERTEX
10    
21.338
20  
7.692
0
VERTEX
10    
21.338
20  
7.707
0
VERTEX
10    
21.338
20  
7.73
0
VERTEX
10    
21.338
20  
7.759
0
VERTEX
10    
21.338
20  
7.786
0
VERTEX
10    
21.338
20  
7.829
0
VERTEX
10    
21.338
20  
7.871
0
VERTEX
10    
21.338
20  
7.904
0
VERTEX
10    
21.338
20  
7.922
0
VERTEX
10    
21.338
20  
7.936
0
VERTEX
10    
21.338
20  
7.95
0
VERTEX
10    
21.332
20  
7.965
0
VERTEX
10    
21.332
20  
7.976
0
VERTEX
10    
21.336
20  
7.989
0
VERTEX
10    
21.336
20  
8.003
0
VERTEX
10    
21.336
20  
8.013
0
VERTEX
10    
21.35
20  
8.015
0
VERTEX
10    
21.4
20  
8.026
0
VERTEX
10    
21.451
20  
8.026
0
VERTEX
10    
21.466
20  
8.026
0
VERTEX
10    
21.479
20  
8.026
0
VERTEX
10    
21.496
20  
8.026
0
VERTEX
10    
21.505
20  
8.026
0
VERTEX
10    
21.529
20  
8.026
0
VERTEX
10    
21.539
20  
8.029
0
VERTEX
10    
21.551
20  
8.033
0
VERTEX
10    
21.562
20  
8.033
0
VERTEX
10    
21.572
20  
8.033
0
VERTEX
10    
21.583
20  
8.029
0
VERTEX
10    
21.594
20  
8.029
0
VERTEX
10    
21.602
20  
8.027
0
VERTEX
10    
21.618
20  
8.027
0
VERTEX
10    
21.616
20  
8.014
0
VERTEX
10    
21.628
20  
7.998
0
VERTEX
10    
21.628
20  
7.987
0
VERTEX
10    
21.628
20  
7.976
0
VERTEX
10    
21.628
20  
7.96
0
VERTEX
10    
21.628
20  
7.943
0
VERTEX
10    
21.628
20  
7.921
0
VERTEX
10    
21.628
20  
7.893
0
VERTEX
10    
21.628
20  
7.863
0
VERTEX
10    
21.628
20  
7.823
0
VERTEX
10    
21.628
20  
7.784
0
VERTEX
10    
21.628
20  
7.756
0
VERTEX
10    
21.628
20  
7.723
0
VERTEX
10    
21.628
20  
7.697
0
VERTEX
10    
21.617
20  
7.672
0
VERTEX
10    
21.617
20  
7.649
0
VERTEX
10    
21.617
20  
7.63
0
VERTEX
10    
21.617
20  
7.612
0
VERTEX
10    
21.617
20  
7.596
0
VERTEX
10    
21.617
20  
7.577
0
VERTEX
10    
21.617
20  
7.557
0
VERTEX
10    
21.617
20  
7.53
0
VERTEX
10    
21.617
20  
7.497
0
VERTEX
10    
21.604
20  
7.454
0
VERTEX
10    
21.604
20  
7.411
0
VERTEX
10    
21.604
20  
7.372
0
VERTEX
10    
21.604
20  
7.343
0
VERTEX
10    
21.604
20  
7.309
0
VERTEX
10    
21.604
20  
7.282
0
VERTEX
10    
21.604
20  
7.258
0
VERTEX
10    
21.604
20  
7.236
0
VERTEX
10    
21.604
20  
7.219
0
VERTEX
10    
21.604
20  
7.203
0
VERTEX
10    
21.604
20  
7.188
0
VERTEX
10    
21.604
20  
7.161
0
VERTEX
10    
21.604
20  
7.143
0
VERTEX
10    
21.604
20  
7.102
0
VERTEX
10    
21.6
20  
7.072
0
VERTEX
10    
21.593
20  
7.042
0
VERTEX
10    
21.594
20  
7.008
0
VERTEX
10    
21.594
20  
6.962
0
VERTEX
10    
21.594
20  
6.935
0
VERTEX
10    
21.594
20  
6.918
0
VERTEX
10    
21.594
20  
6.903
0
VERTEX
10    
21.583
20  
6.884
0
VERTEX
10    
21.583
20  
6.87
0
VERTEX
10    
21.583
20  
6.854
0
VERTEX
10    
21.583
20  
6.842
0
VERTEX
10    
21.583
20  
6.83
0
VERTEX
10    
21.583
20  
6.82
0
VERTEX
10    
21.583
20  
6.807
0
VERTEX
10    
21.583
20  
6.791
0
VERTEX
10    
21.583
20  
6.772
0
VERTEX
10    
21.583
20  
6.758
0
VERTEX
10    
21.579
20  
6.74
0
VERTEX
10    
21.579
20  
6.724
0
VERTEX
10    
21.579
20  
6.711
0
VERTEX
10    
21.579
20  
6.688
0
VERTEX
10    
21.579
20  
6.669
0
VERTEX
10    
21.579
20  
6.65
0
VERTEX
10    
21.579
20  
6.629
0
VERTEX
10    
21.579
20  
6.609
0
VERTEX
10    
21.579
20  
6.581
0
VERTEX
10    
21.579
20  
6.559
0
VERTEX
10    
21.57
20  
6.538
0
VERTEX
10    
21.57
20  
6.51
0
VERTEX
10    
21.57
20  
6.483
0
VERTEX
10    
21.57
20  
6.465
0
VERTEX
10    
21.57
20  
6.454
0
VERTEX
10    
21.56
20  
6.441
0
VERTEX
10    
21.56
20  
6.423
0
VERTEX
10    
21.56
20  
6.406
0
VERTEX
10    
21.56
20  
6.393
0
VERTEX
10    
21.56
20  
6.376
0
VERTEX
10    
21.56
20  
6.36
0
VERTEX
10    
21.558
20  
6.351
0
VERTEX
10    
21.554
20  
6.331
0
VERTEX
10    
21.555
20  
6.321
0
VERTEX
10    
21.555
20  
6.305
0
VERTEX
10    
21.555
20  
6.275
0
VERTEX
10    
21.549
20  
6.23
0
VERTEX
10    
21.539
20  
6.201
0
VERTEX
10    
21.541
20  
6.171
0
VERTEX
10    
21.532
20  
6.171
0
VERTEX
10    
21.532
20  
6.181
0
VERTEX
10    
21.532
20  
6.193
0
VERTEX
10    
21.532
20  
6.204
0
VERTEX
10    
21.538
20  
6.233
0
VERTEX
10    
21.55
20  
6.244
0
VERTEX
10    
21.548
20  
6.252
0
VERTEX
10    
21.548
20  
6.272
0
VERTEX
10    
21.561
20  
6.272
0
VERTEX
10    
21.561
20  
6.282
0
VERTEX
10    
21.553
20  
6.282
0
VERTEX
10    
21.538
20  
6.282
0
VERTEX
10    
21.52
20  
6.282
0
VERTEX
10    
21.51
20  
6.289
0
VERTEX
10    
21.498
20  
6.289
0
VERTEX
10    
21.485
20  
6.289
0
VERTEX
10    
21.467
20  
6.289
0
VERTEX
10    
21.453
20  
6.289
0
VERTEX
10    
21.436
20  
6.289
0
VERTEX
10    
21.424
20  
6.289
0
VERTEX
10    
21.413
20  
6.289
0
VERTEX
10    
21.392
20  
6.289
0
VERTEX
10    
21.379
20  
6.289
0
VERTEX
10    
21.373
20  
6.301
0
VERTEX
10    
21.354
20  
6.315
0
VERTEX
10    
21.343
20  
6.317
0
VERTEX
10    
21.346
20  
6.327
0
VERTEX
10    
21.346
20  
6.337
0
VERTEX
10    
21.331
20  
6.348
0
VERTEX
10    
21.331
20  
6.363
0
VERTEX
10    
21.319
20  
6.363
0
VERTEX
10    
21.319
20  
6.376
0
VERTEX
10    
21.319
20  
6.393
0
VERTEX
10    
21.307
20  
6.393
0
VERTEX
10    
21.307
20  
6.411
0
VERTEX
10    
21.307
20  
6.436
0
VERTEX
10    
21.307
20  
6.456
0
VERTEX
10    
21.29
20  
6.49
0
VERTEX
10    
21.29
20  
6.501
0
VERTEX
10    
21.277
20  
6.519
0
VERTEX
10    
21.277
20  
6.53
0
VERTEX
10    
21.277
20  
6.554
0
VERTEX
10    
21.263
20  
6.591
0
VERTEX
10    
21.263
20  
6.625
0
VERTEX
10    
21.247
20  
6.653
0
VERTEX
10    
21.247
20  
6.665
0
VERTEX
10    
21.247
20  
6.673
0
VERTEX
10    
21.243
20  
6.697
0
VERTEX
10    
21.233
20  
6.719
0
VERTEX
10    
21.231
20  
6.743
0
VERTEX
10    
21.223
20  
6.76
0
VERTEX
10    
21.22
20  
6.776
0
VERTEX
10    
21.212
20  
6.785
0
VERTEX
10    
21.213
20  
6.806
0
VERTEX
10    
21.196
20  
6.84
0
VERTEX
10    
21.192
20  
6.857
0
VERTEX
10    
21.181
20  
6.871
0
VERTEX
10    
21.178
20  
6.886
0
VERTEX
10    
21.168
20  
6.904
0
VERTEX
10    
21.169
20  
6.914
0
VERTEX
10    
21.158
20  
6.93
0
VERTEX
10    
21.158
20  
6.943
0
VERTEX
10    
21.148
20  
6.947
0
VERTEX
10    
21.142
20  
6.957
0
VERTEX
10    
21.129
20  
6.967
0
VERTEX
10    
21.129
20  
6.981
0
VERTEX
10    
21.11
20  
6.981
0
VERTEX
10    
21.11
20  
6.991
0
VERTEX
10    
21.104
20  
6.977
0
VERTEX
10    
21.104
20  
6.931
0
VERTEX
10    
21.104
20  
6.895
0
VERTEX
10    
21.104
20  
6.845
0
VERTEX
10    
21.104
20  
6.801
0
VERTEX
10    
21.104
20  
6.757
0
VERTEX
10    
21.104
20  
6.725
0
VERTEX
10    
21.104
20  
6.687
0
VERTEX
10    
21.104
20  
6.643
0
VERTEX
10    
21.104
20  
6.592
0
VERTEX
10    
21.104
20  
6.546
0
VERTEX
10    
21.104
20  
6.506
0
VERTEX
10    
21.104
20  
6.474
0
VERTEX
10    
21.104
20  
6.457
0
VERTEX
10    
21.104
20  
6.443
0
VERTEX
10    
21.104
20  
6.429
0
VERTEX
10    
21.104
20  
6.409
0
VERTEX
10    
21.104
20  
6.393
0
VERTEX
10    
21.104
20  
6.381
0
VERTEX
10    
21.104
20  
6.373
0
VERTEX
10    
21.104
20  
6.358
0
VERTEX
10    
21.104
20  
6.344
0
VERTEX
10    
21.104
20  
6.333
0
VERTEX
10    
21.109
20  
6.32
0
VERTEX
10    
21.109
20  
6.309
0
VERTEX
10    
21.1
20  
6.309
0
VERTEX
10    
21.084
20  
6.309
0
VERTEX
10    
21.072
20  
6.309
0
VERTEX
10    
21.06
20  
6.308
0
VERTEX
10    
21.049
20  
6.308
0
VERTEX
10    
21.039
20  
6.308
0
VERTEX
10    
21.025
20  
6.308
0
VERTEX
10    
20.982
20  
6.308
0
VERTEX
10    
20.935
20  
6.302
0
VERTEX
10    
20.887
20  
6.29
0
VERTEX
10    
20.879
20  
6.292
0
VERTEX
10    
20.87
20  
6.292
0
VERTEX
10    
20.859
20  
6.292
0
VERTEX
10    
20.847
20  
6.291
0
VERTEX
10    
20.847
20  
6.305
0
VERTEX
10    
20.836
20  
6.305
0
VERTEX
10    
20.823
20  
6.305
0
VERTEX
10    
20.823
20  
6.316
0
VERTEX
10    
20.812
20  
6.316
0
VERTEX
10    
20.812
20  
6.327
0
VERTEX
10    
20.812
20  
6.346
0
VERTEX
10    
20.812
20  
6.356
0
VERTEX
10    
20.812
20  
6.365
0
VERTEX
10    
20.812
20  
6.391
0
VERTEX
10    
20.812
20  
6.412
0
VERTEX
10    
20.824
20  
6.45
0
VERTEX
10    
20.824
20  
6.471
0
VERTEX
10    
20.824
20  
6.483
0
VERTEX
10    
20.824
20  
6.533
0
VERTEX
10    
20.824
20  
6.569
0
VERTEX
10    
20.824
20  
6.615
0
VERTEX
10    
20.835
20  
6.646
0
VERTEX
10    
20.835
20  
6.671
0
VERTEX
10    
20.835
20  
6.686
0
VERTEX
10    
20.835
20  
6.702
0
VERTEX
10    
20.835
20  
6.722
0
VERTEX
10    
20.835
20  
6.74
0
VERTEX
10    
20.846
20  
6.768
0
VERTEX
10    
20.846
20  
6.795
0
VERTEX
10    
20.846
20  
6.825
0
VERTEX
10    
20.857
20  
6.844
0
VERTEX
10    
20.857
20  
6.869
0
VERTEX
10    
20.857
20  
6.91
0
VERTEX
10    
20.857
20  
6.958
0
VERTEX
10    
20.857
20  
7.004
0
VERTEX
10    
20.857
20  
7.044
0
VERTEX
10    
20.857
20  
7.074
0
VERTEX
10    
20.857
20  
7.107
0
VERTEX
10    
20.857
20  
7.129
0
VERTEX
10    
20.857
20  
7.14
0
VERTEX
10    
20.857
20  
7.156
0
VERTEX
10    
20.857
20  
7.17
0
VERTEX
10    
20.847
20  
7.183
0
VERTEX
10    
20.847
20  
7.192
0
VERTEX
10    
20.847
20  
7.206
0
VERTEX
10    
20.847
20  
7.251
0
VERTEX
10    
20.847
20  
7.28
0
VERTEX
10    
20.847
20  
7.316
0
VERTEX
10    
20.847
20  
7.351
0
VERTEX
10    
20.847
20  
7.384
0
VERTEX
10    
20.847
20  
7.42
0
VERTEX
10    
20.847
20  
7.455
0
VERTEX
10    
20.847
20  
7.488
0
VERTEX
10    
20.847
20  
7.508
0
VERTEX
10    
20.847
20  
7.528
0
VERTEX
10    
20.847
20  
7.542
0
VERTEX
10    
20.846
20  
7.57
0
VERTEX
10    
20.846
20  
7.595
0
VERTEX
10    
20.846
20  
7.609
0
VERTEX
10    
20.846
20  
7.623
0
VERTEX
10    
20.85
20  
7.657
0
VERTEX
10    
20.859
20  
7.679
0
VERTEX
10    
20.857
20  
7.708
0
VERTEX
10    
20.857
20  
7.745
0
VERTEX
10    
20.857
20  
7.77
0
VERTEX
10    
20.857
20  
7.803
0
VERTEX
10    
20.857
20  
7.849
0
VERTEX
10    
20.857
20  
7.88
0
VERTEX
10    
20.857
20  
7.921
0
VERTEX
10    
20.857
20  
7.937
0
VERTEX
10    
20.857
20  
7.947
0
VERTEX
10    
20.857
20  
7.961
0
VERTEX
10    
20.857
20  
7.978
0
VERTEX
10    
20.857
20  
7.997
0
VERTEX
10    
20.857
20  
8.01
0
VERTEX
10    
20.858
20  
8.022
0
VERTEX
10    
20.881
20  
8.034
0
VERTEX
10    
20.912
20  
8.039
0
VERTEX
10    
20.955
20  
8.052
0
VERTEX
10    
20.988
20  
8.05
0
VERTEX
10    
21.013
20  
8.05
0
VERTEX
10    
21.016
20  
8.059
0
VERTEX
10    
21.016
20  
8.049
0     
SEQEND
0 
POLYLINE
8     
PlasmaCutterPath
70  
0  
6 
Continuous
40    
0.1
41 
0.1   
43
0.1
0
VERTEX
10    
22.288
20  
8.049
0
VERTEX
10    
22.296
20  
8.052
0
VERTEX
10    
22.318
20  
8.052
0
VERTEX
10    
22.33
20  
8.052
0
VERTEX
10    
22.34
20  
8.052
0
VERTEX
10    
22.351
20  
8.052
0
VERTEX
10    
22.365
20  
8.052
0
VERTEX
10    
22.365
20  
8.039
0
VERTEX
10    
22.379
20  
8.039
0
VERTEX
10    
22.388
20  
8.034
0
VERTEX
10    
22.413
20  
8.024
0
VERTEX
10    
22.432
20  
8.026
0
VERTEX
10    
22.442
20  
8.021
0
VERTEX
10    
22.449
20  
8.011
0
VERTEX
10    
22.461
20  
8.013
0
VERTEX
10    
22.472
20  
8
0
VERTEX
10    
22.485
20  
8
0
VERTEX
10    
22.496
20  
8
0
VERTEX
10    
22.496
20  
7.989
0
VERTEX
10    
22.508
20  
7.989
0
VERTEX
10    
22.52
20  
7.989
0
VERTEX
10    
22.53
20  
7.975
0
VERTEX
10    
22.548
20  
7.96
0
VERTEX
10    
22.566
20  
7.96
0
VERTEX
10    
22.581
20  
7.941
0
VERTEX
10    
22.607
20  
7.929
0
VERTEX
10    
22.612
20  
7.918
0
VERTEX
10    
22.622
20  
7.918
0
VERTEX
10    
22.622
20  
7.9
0
VERTEX
10    
22.633
20  
7.887
0
VERTEX
10    
22.633
20  
7.874
0
VERTEX
10    
22.633
20  
7.862
0
VERTEX
10    
22.647
20  
7.844
0
VERTEX
10    
22.647
20  
7.827
0
VERTEX
10    
22.647
20  
7.803
0
VERTEX
10    
22.662
20  
7.783
0
VERTEX
10    
22.662
20  
7.773
0
VERTEX
10    
22.662
20  
7.754
0
VERTEX
10    
22.674
20  
7.742
0
VERTEX
10    
22.674
20  
7.728
0
VERTEX
10    
22.674
20  
7.711
0
VERTEX
10    
22.684
20  
7.711
0
VERTEX
10    
22.684
20  
7.685
0
VERTEX
10    
22.684
20  
7.672
0
VERTEX
10    
22.684
20  
7.661
0
VERTEX
10    
22.696
20  
7.649
0
VERTEX
10    
22.696
20  
7.637
0
VERTEX
10    
22.696
20  
7.622
0
VERTEX
10    
22.696
20  
7.607
0
VERTEX
10    
22.696
20  
7.594
0
VERTEX
10    
22.696
20  
7.583
0
VERTEX
10    
22.696
20  
7.568
0
VERTEX
10    
22.696
20  
7.554
0
VERTEX
10    
22.696
20  
7.541
0
VERTEX
10    
22.696
20  
7.529
0
VERTEX
10    
22.697
20  
7.519
0
VERTEX
10    
22.697
20  
7.508
0
VERTEX
10    
22.697
20  
7.491
0
VERTEX
10    
22.697
20  
7.478
0
VERTEX
10    
22.697
20  
7.465
0
VERTEX
10    
22.697
20  
7.451
0
VERTEX
10    
22.697
20  
7.444
0
VERTEX
10    
22.697
20  
7.429
0
VERTEX
10    
22.697
20  
7.413
0
VERTEX
10    
22.697
20  
7.398
0
VERTEX
10    
22.688
20  
7.398
0
VERTEX
10    
22.663
20  
7.398
0
VERTEX
10    
22.642
20  
7.398
0
VERTEX
10    
22.609
20  
7.398
0
VERTEX
10    
22.581
20  
7.402
0
VERTEX
10    
22.562
20  
7.411
0
VERTEX
10    
22.543
20  
7.409
0
VERTEX
10    
22.524
20  
7.409
0
VERTEX
10    
22.502
20  
7.409
0
VERTEX
10    
22.483
20  
7.409
0
VERTEX
10    
22.461
20  
7.409
0
VERTEX
10    
22.438
20  
7.409
0
VERTEX
10    
22.419
20  
7.409
0
VERTEX
10    
22.406
20  
7.409
0
VERTEX
10    
22.397
20  
7.417
0
VERTEX
10    
22.397
20  
7.436
0
VERTEX
10    
22.397
20  
7.457
0
VERTEX
10    
22.397
20  
7.469
0
VERTEX
10    
22.397
20  
7.48
0
VERTEX
10    
22.401
20  
7.496
0
VERTEX
10    
22.41
20  
7.517
0
VERTEX
10    
22.408
20  
7.534
0
VERTEX
10    
22.408
20  
7.551
0
VERTEX
10    
22.408
20  
7.566
0
VERTEX
10    
22.403
20  
7.58
0
VERTEX
10    
22.393
20  
7.593
0
VERTEX
10    
22.39
20  
7.605
0
VERTEX
10    
22.383
20  
7.612
0
VERTEX
10    
22.383
20  
7.629
0
VERTEX
10    
22.372
20  
7.629
0
VERTEX
10    
22.372
20  
7.645
0
VERTEX
10    
22.372
20  
7.656
0
VERTEX
10    
22.372
20  
7.676
0
VERTEX
10    
22.358
20  
7.676
0
VERTEX
10    
22.358
20  
7.691
0
VERTEX
10    
22.347
20  
7.707
0
VERTEX
10    
22.347
20  
7.719
0
VERTEX
10    
22.336
20  
7.719
0
VERTEX
10    
22.336
20  
7.735
0
VERTEX
10    
22.324
20  
7.735
0
VERTEX
10    
22.324
20  
7.746
0
VERTEX
10    
22.313
20  
7.746
0
VERTEX
10    
22.297
20  
7.746
0
VERTEX
10    
22.286
20  
7.746
0
VERTEX
10    
22.27
20  
7.746
0
VERTEX
10    
22.257
20  
7.746
0
VERTEX
10    
22.242
20  
7.746
0
VERTEX
10    
22.242
20  
7.735
0
VERTEX
10    
22.23
20  
7.735
0
VERTEX
10    
22.23
20  
7.716
0
VERTEX
10    
22.209
20  
7.703
0
VERTEX
10    
22.209
20  
7.692
0
VERTEX
10    
22.192
20  
7.67
0
VERTEX
10    
22.19
20  
7.658
0
VERTEX
10    
22.182
20  
7.646
0
VERTEX
10    
22.183
20  
7.635
0
VERTEX
10    
22.183
20  
7.622
0
VERTEX
10    
22.183
20  
7.605
0
VERTEX
10    
22.183
20  
7.581
0
VERTEX
10    
22.183
20  
7.563
0
VERTEX
10    
22.183
20  
7.543
0
VERTEX
10    
22.183
20  
7.524
0
VERTEX
10    
22.183
20  
7.506
0
VERTEX
10    
22.183
20  
7.481
0
VERTEX
10    
22.183
20  
7.455
0
VERTEX
10    
22.183
20  
7.427
0
VERTEX
10    
22.183
20  
7.401
0
VERTEX
10    
22.183
20  
7.372
0
VERTEX
10    
22.183
20  
7.345
0
VERTEX
10    
22.183
20  
7.313
0
VERTEX
10    
22.183
20  
7.288
0
VERTEX
10    
22.183
20  
7.263
0
VERTEX
10    
22.186
20  
7.244
0
VERTEX
10    
22.186
20  
7.221
0
VERTEX
10    
22.186
20  
7.196
0
VERTEX
10    
22.186
20  
7.169
0
VERTEX
10    
22.186
20  
7.137
0
VERTEX
10    
22.186
20  
7.103
0
VERTEX
10    
22.186
20  
7.066
0
VERTEX
10    
22.186
20  
7.025
0
VERTEX
10    
22.186
20  
6.987
0
VERTEX
10    
22.186
20  
6.959
0
VERTEX
10    
22.186
20  
6.932
0
VERTEX
10    
22.186
20  
6.903
0
VERTEX
10    
22.186
20  
6.884
0
VERTEX
10    
22.186
20  
6.862
0
VERTEX
10    
22.186
20  
6.846
0
VERTEX
10    
22.186
20  
6.831
0
VERTEX
10    
22.186
20  
6.818
0
VERTEX
10    
22.186
20  
6.802
0
VERTEX
10    
22.175
20  
6.787
0
VERTEX
10    
22.175
20  
6.775
0
VERTEX
10    
22.175
20  
6.762
0
VERTEX
10    
22.175
20  
6.749
0
VERTEX
10    
22.175
20  
6.735
0
VERTEX
10    
22.175
20  
6.722
0
VERTEX
10    
22.175
20  
6.71
0
VERTEX
10    
22.175
20  
6.699
0
VERTEX
10    
22.175
20  
6.685
0
VERTEX
10    
22.175
20  
6.671
0
VERTEX
10    
22.175
20  
6.646
0
VERTEX
10    
22.175
20  
6.631
0
VERTEX
10    
22.175
20  
6.617
0
VERTEX
10    
22.175
20  
6.603
0
VERTEX
10    
22.194
20  
6.587
0
VERTEX
10    
22.2
20  
6.568
0
VERTEX
10    
22.218
20  
6.558
0
VERTEX
10    
22.232
20  
6.552
0
VERTEX
10    
22.245
20  
6.536
0
VERTEX
10    
22.259
20  
6.534
0
VERTEX
10    
22.266
20  
6.524
0
VERTEX
10    
22.282
20  
6.526
0
VERTEX
10    
22.282
20  
6.513
0
VERTEX
10    
22.3
20  
6.513
0
VERTEX
10    
22.31
20  
6.513
0
VERTEX
10    
22.323
20  
6.513
0
VERTEX
10    
22.334
20  
6.513
0
VERTEX
10    
22.35
20  
6.529
0
VERTEX
10    
22.363
20  
6.546
0
VERTEX
10    
22.363
20  
6.558
0
VERTEX
10    
22.374
20  
6.571
0
VERTEX
10    
22.374
20  
6.584
0
VERTEX
10    
22.378
20  
6.592
0
VERTEX
10    
22.385
20  
6.606
0
VERTEX
10    
22.385
20  
6.627
0
VERTEX
10    
22.385
20  
6.644
0
VERTEX
10    
22.395
20  
6.644
0
VERTEX
10    
22.395
20  
6.662
0
VERTEX
10    
22.395
20  
6.677
0
VERTEX
10    
22.395
20  
6.693
0
VERTEX
10    
22.395
20  
6.705
0
VERTEX
10    
22.395
20  
6.719
0
VERTEX
10    
22.395
20  
6.731
0
VERTEX
10    
22.395
20  
6.745
0
VERTEX
10    
22.402
20  
6.758
0
VERTEX
10    
22.402
20  
6.767
0
VERTEX
10    
22.402
20  
6.789
0
VERTEX
10    
22.402
20  
6.797
0
VERTEX
10    
22.402
20  
6.815
0
VERTEX
10    
22.402
20  
6.827
0
VERTEX
10    
22.402
20  
6.84
0
VERTEX
10    
22.402
20  
6.855
0
VERTEX
10    
22.404
20  
6.865
0
VERTEX
10    
22.41
20  
6.885
0
VERTEX
10    
22.409
20  
6.897
0
VERTEX
10    
22.409
20  
6.913
0
VERTEX
10    
22.421
20  
6.913
0
VERTEX
10    
22.445
20  
6.913
0
VERTEX
10    
22.467
20  
6.913
0
VERTEX
10    
22.494
20  
6.913
0
VERTEX
10    
22.52
20  
6.913
0
VERTEX
10    
22.546
20  
6.913
0
VERTEX
10    
22.568
20  
6.913
0
VERTEX
10    
22.589
20  
6.913
0
VERTEX
10    
22.604
20  
6.913
0
VERTEX
10    
22.615
20  
6.913
0
VERTEX
10    
22.62
20  
6.903
0
VERTEX
10    
22.62
20  
6.89
0
VERTEX
10    
22.62
20  
6.881
0
VERTEX
10    
22.632
20  
6.881
0
VERTEX
10    
22.632
20  
6.871
0
VERTEX
10    
22.643
20  
6.856
0
VERTEX
10    
22.655
20  
6.841
0
VERTEX
10    
22.655
20  
6.825
0
VERTEX
10    
22.669
20  
6.825
0
VERTEX
10    
22.669
20  
6.81
0
VERTEX
10    
22.669
20  
6.799
0
VERTEX
10    
22.669
20  
6.784
0
VERTEX
10    
22.669
20  
6.769
0
VERTEX
10    
22.669
20  
6.758
0
VERTEX
10    
22.669
20  
6.747
0
VERTEX
10    
22.669
20  
6.733
0
VERTEX
10    
22.673
20  
6.722
0
VERTEX
10    
22.673
20  
6.712
0
VERTEX
10    
22.673
20  
6.704
0
VERTEX
10    
22.673
20  
6.684
0
VERTEX
10    
22.673
20  
6.674
0
VERTEX
10    
22.669
20  
6.659
0
VERTEX
10    
22.661
20  
6.644
0
VERTEX
10    
22.663
20  
6.628
0
VERTEX
10    
22.663
20  
6.608
0
VERTEX
10    
22.652
20  
6.578
0
VERTEX
10    
22.652
20  
6.567
0
VERTEX
10    
22.652
20  
6.552
0
VERTEX
10    
22.652
20  
6.536
0
VERTEX
10    
22.639
20  
6.516
0
VERTEX
10    
22.639
20  
6.498
0
VERTEX
10    
22.623
20  
6.484
0
VERTEX
10    
22.612
20  
6.47
0
VERTEX
10    
22.595
20  
6.455
0
VERTEX
10    
22.58
20  
6.438
0
VERTEX
10    
22.57
20  
6.438
0
VERTEX
10    
22.57
20  
6.425
0
VERTEX
10    
22.552
20  
6.425
0
VERTEX
10    
22.539
20  
6.409
0
VERTEX
10    
22.524
20  
6.398
0
VERTEX
10    
22.505
20  
6.398
0
VERTEX
10    
22.489
20  
6.378
0
VERTEX
10    
22.474
20  
6.378
0
VERTEX
10    
22.474
20  
6.365
0
VERTEX
10    
22.462
20  
6.365
0
VERTEX
10    
22.45
20  
6.351
0
VERTEX
10    
22.438
20  
6.351
0
VERTEX
10    
22.424
20  
6.333
0
VERTEX
10    
22.412
20  
6.333
0
VERTEX
10    
22.4
20  
6.321
0
VERTEX
10    
22.387
20  
6.321
0
VERTEX
10    
22.387
20  
6.307
0
VERTEX
10    
22.366
20  
6.307
0
VERTEX
10    
22.349
20  
6.307
0
VERTEX
10    
22.326
20  
6.307
0
VERTEX
10    
22.31
20  
6.296
0
VERTEX
10    
22.296
20  
6.296
0
VERTEX
10    
22.281
20  
6.296
0
VERTEX
10    
22.266
20  
6.296
0
VERTEX
10    
22.251
20  
6.296
0
VERTEX
10    
22.227
20  
6.296
0
VERTEX
10    
22.207
20  
6.296
0
VERTEX
10    
22.181
20  
6.3
0
VERTEX
10    
22.164
20  
6.308
0
VERTEX
10    
22.145
20  
6.307
0
VERTEX
10    
22.13
20  
6.312
0
VERTEX
10    
22.116
20  
6.322
0
VERTEX
10    
22.104
20  
6.321
0
VERTEX
10    
22.091
20  
6.325
0
VERTEX
10    
22.079
20  
6.334
0
VERTEX
10    
22.065
20  
6.337
0
VERTEX
10    
22.057
20  
6.347
0
VERTEX
10    
22.045
20  
6.346
0
VERTEX
10    
22.045
20  
6.356
0
VERTEX
10    
22.045
20  
6.367
0
VERTEX
10    
22.035
20  
6.367
0
VERTEX
10    
22.025
20  
6.385
0
VERTEX
10    
22.025
20  
6.401
0
VERTEX
10    
22.013
20  
6.401
0
VERTEX
10    
22.013
20  
6.417
0
VERTEX
10    
22.003
20  
6.417
0
VERTEX
10    
22.003
20  
6.43
0
VERTEX
10    
22.003
20  
6.442
0
VERTEX
10    
21.993
20  
6.442
0
VERTEX
10    
21.993
20  
6.454
0
VERTEX
10    
21.988
20  
6.465
0
VERTEX
10    
21.973
20  
6.496
0
VERTEX
10    
21.965
20  
6.512
0
VERTEX
10    
21.956
20  
6.519
0
VERTEX
10    
21.956
20  
6.532
0
VERTEX
10    
21.956
20  
6.546
0
VERTEX
10    
21.956
20  
6.562
0
VERTEX
10    
21.956
20  
6.589
0
VERTEX
10    
21.944
20  
6.637
0
VERTEX
10    
21.944
20  
6.649
0
VERTEX
10    
21.944
20  
6.669
0
VERTEX
10    
21.944
20  
6.688
0
VERTEX
10    
21.934
20  
6.726
0
VERTEX
10    
21.934
20  
6.738
0
VERTEX
10    
21.934
20  
6.753
0
VERTEX
10    
21.934
20  
6.764
0
VERTEX
10    
21.934
20  
6.795
0
VERTEX
10    
21.934
20  
6.813
0
VERTEX
10    
21.934
20  
6.826
0
VERTEX
10    
21.934
20  
6.842
0
VERTEX
10    
21.933
20  
6.85
0
VERTEX
10    
21.931
20  
6.877
0
VERTEX
10    
21.932
20  
6.904
0
VERTEX
10    
21.932
20  
6.937
0
VERTEX
10    
21.932
20  
6.971
0
VERTEX
10    
21.932
20  
6.993
0
VERTEX
10    
21.932
20  
7.027
0
VERTEX
10    
21.932
20  
7.06
0
VERTEX
10    
21.932
20  
7.11
0
VERTEX
10    
21.932
20  
7.13
0
VERTEX
10    
21.922
20  
7.13
0
VERTEX
10    
21.922
20  
7.166
0
VERTEX
10    
21.922
20  
7.189
0
VERTEX
10    
21.922
20  
7.21
0
VERTEX
10    
21.922
20  
7.232
0
VERTEX
10    
21.922
20  
7.249
0
VERTEX
10    
21.922
20  
7.263
0
VERTEX
10    
21.922
20  
7.282
0
VERTEX
10    
21.922
20  
7.309
0
VERTEX
10    
21.922
20  
7.336
0
VERTEX
10    
21.922
20  
7.35
0
VERTEX
10    
21.922
20  
7.417
0
VERTEX
10    
21.937
20  
7.417
0
VERTEX
10    
21.937
20  
7.444
0
VERTEX
10    
21.937
20  
7.474
0
VERTEX
10    
21.937
20  
7.497
0
VERTEX
10    
21.95
20  
7.508
0
VERTEX
10    
21.95
20  
7.539
0
VERTEX
10    
21.95
20  
7.555
0
VERTEX
10    
21.961
20  
7.579
0
VERTEX
10    
21.961
20  
7.593
0
VERTEX
10    
21.961
20  
7.607
0
VERTEX
10    
21.961
20  
7.621
0
VERTEX
10    
21.961
20  
7.633
0
VERTEX
10    
21.961
20  
7.654
0
VERTEX
10    
21.961
20  
7.676
0
VERTEX
10    
21.961
20  
7.689
0
VERTEX
10    
21.971
20  
7.705
0
VERTEX
10    
21.971
20  
7.722
0
VERTEX
10    
21.971
20  
7.739
0
VERTEX
10    
21.971
20  
7.749
0
VERTEX
10    
21.971
20  
7.783
0
VERTEX
10    
21.971
20  
7.825
0
VERTEX
10    
21.983
20  
7.845
0
VERTEX
10    
21.983
20  
7.868
0
VERTEX
10    
21.983
20  
7.895
0
VERTEX
10    
21.996
20  
7.912
0
VERTEX
10    
21.996
20  
7.924
0
VERTEX
10    
22.006
20  
7.924
0
VERTEX
10    
22.006
20  
7.934
0
VERTEX
10    
22.006
20  
7.945
0
VERTEX
10    
22.02
20  
7.945
0
VERTEX
10    
22.02
20  
7.965
0
VERTEX
10    
22.046
20  
7.978
0
VERTEX
10    
22.057
20  
7.978
0
VERTEX
10    
22.057
20  
7.991
0
VERTEX
10    
22.073
20  
7.991
0
VERTEX
10    
22.087
20  
8.006
0
VERTEX
10    
22.103
20  
8.006
0
VERTEX
10    
22.111
20  
8.011
0
VERTEX
10    
22.128
20  
8.022
0
VERTEX
10    
22.15
20  
8.02
0
VERTEX
10    
22.178
20  
8.032
0
VERTEX
10    
22.193
20  
8.032
0
VERTEX
10    
22.208
20  
8.032
0
VERTEX
10    
22.232
20  
8.043
0
VERTEX
10    
22.266
20  
8.043
0
VERTEX
10    
22.286
20  
8.043
0
VERTEX
10    
22.286
20  
8.053
0
VERTEX
10    
22.301
20  
8.053
0
VERTEX
10    
22.323
20  
8.053
0
VERTEX
10    
22.339
20  
8.053
0
VERTEX
10    
22.35
20  
8.053
0
VERTEX
10    
22.36
20  
8.053
0     
SEQEND
0 
POLYLINE
8     
PlasmaCutterPath
70  
0  
6 
Continuous
40    
0.1
41 
0.1   
43
0.1
0
VERTEX
10    
23.308
20  
8.041
0
VERTEX
10    
23.324
20  
8.042
0
VERTEX
10    
23.352
20  
8.042
0
VERTEX
10    
23.391
20  
8.042
0
VERTEX
10    
23.434
20  
8.03
0
VERTEX
10    
23.449
20  
8.032
0
VERTEX
10    
23.474
20  
8.032
0
VERTEX
10    
23.504
20  
8.032
0
VERTEX
10    
23.531
20  
8.032
0
VERTEX
10    
23.548
20  
8.032
0
VERTEX
10    
23.556
20  
8.032
0
VERTEX
10    
23.567
20  
8.032
0
VERTEX
10    
23.581
20  
8.032
0
VERTEX
10    
23.597
20  
8.032
0
VERTEX
10    
23.62
20  
8.035
0
VERTEX
10    
23.629
20  
8.041
0
VERTEX
10    
23.638
20  
8.04
0
VERTEX
10    
23.653
20  
8.04
0
VERTEX
10    
23.667
20  
8.039
0
VERTEX
10    
23.669
20  
8.029
0
VERTEX
10    
23.669
20  
8.017
0
VERTEX
10    
23.68
20  
8.017
0
VERTEX
10    
23.68
20  
8.003
0
VERTEX
10    
23.68
20  
7.992
0
VERTEX
10    
23.68
20  
7.98
0
VERTEX
10    
23.68
20  
7.961
0
VERTEX
10    
23.69
20  
7.945
0
VERTEX
10    
23.69
20  
7.933
0
VERTEX
10    
23.69
20  
7.92
0
VERTEX
10    
23.69
20  
7.908
0
VERTEX
10    
23.69
20  
7.894
0
VERTEX
10    
23.69
20  
7.881
0
VERTEX
10    
23.69
20  
7.863
0
VERTEX
10    
23.69
20  
7.843
0
VERTEX
10    
23.69
20  
7.823
0
VERTEX
10    
23.69
20  
7.802
0
VERTEX
10    
23.69
20  
7.782
0
VERTEX
10    
23.688
20  
7.762
0
VERTEX
10    
23.688
20  
7.735
0
VERTEX
10    
23.688
20  
7.725
0
VERTEX
10    
23.688
20  
7.713
0
VERTEX
10    
23.674
20  
7.713
0
VERTEX
10    
23.646
20  
7.713
0
VERTEX
10    
23.628
20  
7.713
0
VERTEX
10    
23.616
20  
7.713
0
VERTEX
10    
23.602
20  
7.713
0
VERTEX
10    
23.583
20  
7.726
0
VERTEX
10    
23.567
20  
7.73
0
VERTEX
10    
23.546
20  
7.742
0
VERTEX
10    
23.53
20  
7.74
0
VERTEX
10    
23.521
20  
7.74
0
VERTEX
10    
23.509
20  
7.74
0
VERTEX
10    
23.495
20  
7.74
0
VERTEX
10    
23.483
20  
7.74
0
VERTEX
10    
23.471
20  
7.74
0
VERTEX
10    
23.458
20  
7.74
0
VERTEX
10    
23.441
20  
7.744
0
VERTEX
10    
23.429
20  
7.744
0
VERTEX
10    
23.413
20  
7.744
0
VERTEX
10    
23.381
20  
7.744
0
VERTEX
10    
23.359
20  
7.744
0
VERTEX
10    
23.339
20  
7.744
0
VERTEX
10    
23.325
20  
7.744
0
VERTEX
10    
23.316
20  
7.742
0
VERTEX
10    
23.305
20  
7.739
0
VERTEX
10    
23.284
20  
7.739
0
VERTEX
10    
23.284
20  
7.732
0
VERTEX
10    
23.284
20  
7.71
0
VERTEX
10    
23.284
20  
7.693
0
VERTEX
10    
23.281
20  
7.671
0
VERTEX
10    
23.277
20  
7.653
0
VERTEX
10    
23.277
20  
7.636
0
VERTEX
10    
23.277
20  
7.623
0
VERTEX
10    
23.277
20  
7.602
0
VERTEX
10    
23.277
20  
7.584
0
VERTEX
10    
23.277
20  
7.568
0
VERTEX
10    
23.277
20  
7.558
0
VERTEX
10    
23.277
20  
7.539
0
VERTEX
10    
23.277
20  
7.526
0
VERTEX
10    
23.277
20  
7.503
0
VERTEX
10    
23.277
20  
7.474
0
VERTEX
10    
23.277
20  
7.45
0
VERTEX
10    
23.267
20  
7.433
0
VERTEX
10    
23.267
20  
7.406
0
VERTEX
10    
23.267
20  
7.388
0
VERTEX
10    
23.267
20  
7.373
0
VERTEX
10    
23.267
20  
7.356
0
VERTEX
10    
23.267
20  
7.334
0
VERTEX
10    
23.267
20  
7.323
0
VERTEX
10    
23.267
20  
7.31
0
VERTEX
10    
23.262
20  
7.3
0
VERTEX
10    
23.272
20  
7.3
0
VERTEX
10    
23.286
20  
7.3
0
VERTEX
10    
23.3
20  
7.3
0
VERTEX
10    
23.329
20  
7.289
0
VERTEX
10    
23.364
20  
7.289
0
VERTEX
10    
23.419
20  
7.289
0
VERTEX
10    
23.439
20  
7.289
0
VERTEX
10    
23.454
20  
7.289
0
VERTEX
10    
23.468
20  
7.294
0
VERTEX
10    
23.486
20  
7.304
0
VERTEX
10    
23.505
20  
7.303
0
VERTEX
10    
23.52
20  
7.303
0
VERTEX
10    
23.531
20  
7.303
0
VERTEX
10    
23.542
20  
7.303
0
VERTEX
10    
23.552
20  
7.303
0
VERTEX
10    
23.561
20  
7.303
0
VERTEX
10    
23.56
20  
7.292
0
VERTEX
10    
23.574
20  
7.281
0
VERTEX
10    
23.574
20  
7.263
0
VERTEX
10    
23.587
20  
7.263
0
VERTEX
10    
23.587
20  
7.252
0
VERTEX
10    
23.587
20  
7.237
0
VERTEX
10    
23.598
20  
7.237
0
VERTEX
10    
23.598
20  
7.219
0
VERTEX
10    
23.598
20  
7.207
0
VERTEX
10    
23.598
20  
7.193
0
VERTEX
10    
23.598
20  
7.18
0
VERTEX
10    
23.587
20  
7.164
0
VERTEX
10    
23.587
20  
7.153
0
VERTEX
10    
23.587
20  
7.143
0
VERTEX
10    
23.576
20  
7.123
0
VERTEX
10    
23.576
20  
7.108
0
VERTEX
10    
23.576
20  
7.098
0
VERTEX
10    
23.576
20  
7.084
0
VERTEX
10    
23.576
20  
7.073
0
VERTEX
10    
23.561
20  
7.059
0
VERTEX
10    
23.547
20  
7.044
0
VERTEX
10    
23.535
20  
7.044
0
VERTEX
10    
23.524
20  
7.044
0
VERTEX
10    
23.512
20  
7.044
0
VERTEX
10    
23.496
20  
7.044
0
VERTEX
10    
23.489
20  
7.044
0
VERTEX
10    
23.467
20  
7.044
0
VERTEX
10    
23.445
20  
7.044
0
VERTEX
10    
23.41
20  
7.044
0
VERTEX
10    
23.37
20  
7.044
0
VERTEX
10    
23.346
20  
7.044
0
VERTEX
10    
23.338
20  
7.044
0
VERTEX
10    
23.327
20  
7.044
0
VERTEX
10    
23.317
20  
7.044
0
VERTEX
10    
23.299
20  
7.055
0
VERTEX
10    
23.293
20  
7.038
0
VERTEX
10    
23.293
20  
7.026
0
VERTEX
10    
23.293
20  
6.995
0
VERTEX
10    
23.283
20  
6.963
0
VERTEX
10    
23.283
20  
6.938
0
VERTEX
10    
23.283
20  
6.913
0
VERTEX
10    
23.283
20  
6.892
0
VERTEX
10    
23.283
20  
6.869
0
VERTEX
10    
23.283
20  
6.849
0
VERTEX
10    
23.283
20  
6.826
0
VERTEX
10    
23.283
20  
6.812
0
VERTEX
10    
23.283
20  
6.8
0
VERTEX
10    
23.283
20  
6.783
0
VERTEX
10    
23.283
20  
6.763
0
VERTEX
10    
23.283
20  
6.753
0
VERTEX
10    
23.283
20  
6.743
0
VERTEX
10    
23.283
20  
6.733
0
VERTEX
10    
23.283
20  
6.71
0
VERTEX
10    
23.279
20  
6.693
0
VERTEX
10    
23.271
20  
6.669
0
VERTEX
10    
23.268
20  
6.644
0
VERTEX
10    
23.26
20  
6.625
0
VERTEX
10    
23.262
20  
6.604
0
VERTEX
10    
23.25
20  
6.579
0
VERTEX
10    
23.25
20  
6.568
0
VERTEX
10    
23.25
20  
6.556
0
VERTEX
10    
23.26
20  
6.543
0
VERTEX
10    
23.273
20  
6.543
0
VERTEX
10    
23.281
20  
6.538
0
VERTEX
10    
23.303
20  
6.53
0
VERTEX
10    
23.33
20  
6.531
0
VERTEX
10    
23.373
20  
6.531
0
VERTEX
10    
23.419
20  
6.536
0
VERTEX
10    
23.448
20  
6.545
0
VERTEX
10    
23.471
20  
6.547
0
VERTEX
10    
23.497
20  
6.555
0
VERTEX
10    
23.519
20  
6.554
0
VERTEX
10    
23.537
20  
6.554
0
VERTEX
10    
23.551
20  
6.554
0
VERTEX
10    
23.563
20  
6.554
0
VERTEX
10    
23.584
20  
6.554
0
VERTEX
10    
23.594
20  
6.549
0
VERTEX
10    
23.6
20  
6.54
0
VERTEX
10    
23.616
20  
6.542
0
VERTEX
10    
23.616
20  
6.531
0
VERTEX
10    
23.631
20  
6.531
0
VERTEX
10    
23.642
20  
6.519
0
VERTEX
10    
23.653
20  
6.519
0
VERTEX
10    
23.666
20  
6.5
0
VERTEX
10    
23.688
20  
6.5
0
VERTEX
10    
23.71
20  
6.5
0
VERTEX
10    
23.721
20  
6.5
0
VERTEX
10    
23.721
20  
6.49
0
VERTEX
10    
23.721
20  
6.477
0
VERTEX
10    
23.721
20  
6.464
0
VERTEX
10    
23.721
20  
6.45
0
VERTEX
10    
23.721
20  
6.437
0
VERTEX
10    
23.721
20  
6.421
0
VERTEX
10    
23.708
20  
6.406
0
VERTEX
10    
23.708
20  
6.395
0
VERTEX
10    
23.695
20  
6.379
0
VERTEX
10    
23.695
20  
6.364
0
VERTEX
10    
23.695
20  
6.35
0
VERTEX
10    
23.679
20  
6.35
0
VERTEX
10    
23.679
20  
6.334
0
VERTEX
10    
23.679
20  
6.322
0
VERTEX
10    
23.679
20  
6.31
0
VERTEX
10    
23.665
20  
6.31
0
VERTEX
10    
23.665
20  
6.3
0
VERTEX
10    
23.655
20  
6.3
0
VERTEX
10    
23.638
20  
6.3
0
VERTEX
10    
23.616
20  
6.285
0
VERTEX
10    
23.577
20  
6.28
0
VERTEX
10    
23.563
20  
6.271
0
VERTEX
10    
23.55
20  
6.273
0
VERTEX
10    
23.529
20  
6.273
0
VERTEX
10    
23.514
20  
6.273
0
VERTEX
10    
23.497
20  
6.273
0
VERTEX
10    
23.48
20  
6.273
0
VERTEX
10    
23.46
20  
6.273
0
VERTEX
10    
23.432
20  
6.273
0
VERTEX
10    
23.391
20  
6.277
0
VERTEX
10    
23.342
20  
6.284
0
VERTEX
10    
23.316
20  
6.283
0
VERTEX
10    
23.296
20  
6.283
0
VERTEX
10    
23.283
20  
6.283
0
VERTEX
10    
23.266
20  
6.283
0
VERTEX
10    
23.239
20  
6.287
0
VERTEX
10    
23.226
20  
6.295
0
VERTEX
10    
23.212
20  
6.294
0
VERTEX
10    
23.196
20  
6.294
0
VERTEX
10    
23.181
20  
6.294
0
VERTEX
10    
23.165
20  
6.294
0
VERTEX
10    
23.149
20  
6.294
0
VERTEX
10    
23.137
20  
6.304
0
VERTEX
10    
23.118
20  
6.304
0
VERTEX
10    
23.101
20  
6.304
0
VERTEX
10    
23.082
20  
6.304
0
VERTEX
10    
23.063
20  
6.304
0
VERTEX
10    
23.051
20  
6.304
0
VERTEX
10    
23.039
20  
6.304
0
VERTEX
10    
23.008
20  
6.307
0
VERTEX
10    
22.996
20  
6.313
0
VERTEX
10    
22.988
20  
6.312
0
VERTEX
10    
22.988
20  
6.319
0
VERTEX
10    
22.988
20  
6.339
0
VERTEX
10    
22.984
20  
6.353
0
VERTEX
10    
22.976
20  
6.369
0
VERTEX
10    
22.978
20  
6.386
0
VERTEX
10    
22.978
20  
6.408
0
VERTEX
10    
22.978
20  
6.431
0
VERTEX
10    
22.978
20  
6.458
0
VERTEX
10    
22.96
20  
6.495
0
VERTEX
10    
22.96
20  
6.528
0
VERTEX
10    
22.96
20  
6.564
0
VERTEX
10    
22.96
20  
6.607
0
VERTEX
10    
22.96
20  
6.639
0
VERTEX
10    
22.96
20  
6.677
0
VERTEX
10    
22.96
20  
6.708
0
VERTEX
10    
22.96
20  
6.736
0
VERTEX
10    
22.96
20  
6.754
0
VERTEX
10    
22.96
20  
6.782
0
VERTEX
10    
22.971
20  
6.804
0
VERTEX
10    
22.971
20  
6.826
0
VERTEX
10    
22.971
20  
6.855
0
VERTEX
10    
22.971
20  
6.889
0
VERTEX
10    
22.982
20  
6.934
0
VERTEX
10    
22.982
20  
6.967
0
VERTEX
10    
22.996
20  
7.007
0
VERTEX
10    
22.996
20  
7.043
0
VERTEX
10    
22.996
20  
7.094
0
VERTEX
10    
23
20  
7.115
0
VERTEX
10    
23.009
20  
7.144
0
VERTEX
10    
23.012
20  
7.174
0
VERTEX
10    
23.021
20  
7.198
0
VERTEX
10    
23.019
20  
7.23
0
VERTEX
10    
23.019
20  
7.262
0
VERTEX
10    
23.019
20  
7.302
0
VERTEX
10    
23.033
20  
7.34
0
VERTEX
10    
23.033
20  
7.37
0
VERTEX
10    
23.033
20  
7.402
0
VERTEX
10    
23.033
20  
7.471
0
VERTEX
10    
23.033
20  
7.499
0
VERTEX
10    
23.045
20  
7.529
0
VERTEX
10    
23.045
20  
7.581
0
VERTEX
10    
23.045
20  
7.599
0
VERTEX
10    
23.045
20  
7.617
0
VERTEX
10    
23.045
20  
7.64
0
VERTEX
10    
23.045
20  
7.666
0
VERTEX
10    
23.045
20  
7.69
0
VERTEX
10    
23.055
20  
7.733
0
VERTEX
10    
23.055
20  
7.76
0
VERTEX
10    
23.055
20  
7.796
0
VERTEX
10    
23.055
20  
7.853
0
VERTEX
10    
23.055
20  
7.889
0
VERTEX
10    
23.055
20  
7.915
0
VERTEX
10    
23.055
20  
7.938
0
VERTEX
10    
23.055
20  
7.957
0
VERTEX
10    
23.055
20  
7.984
0
VERTEX
10    
23.055
20  
8.003
0
VERTEX
10    
23.055
20  
8.018
0
VERTEX
10    
23.055
20  
8.034
0
VERTEX
10    
23.055
20  
8.055
0
VERTEX
10    
23.063
20  
8.079
0
VERTEX
10    
23.071
20  
8.079
0
VERTEX
10    
23.091
20  
8.079
0
VERTEX
10    
23.105
20  
8.079
0
VERTEX
10    
23.121
20  
8.079
0
VERTEX
10    
23.143
20  
8.08
0
VERTEX
10    
23.167
20  
8.08
0
VERTEX
10    
23.193
20  
8.08
0
VERTEX
10    
23.22
20  
8.08
0
VERTEX
10    
23.239
20  
8.08
0
VERTEX
10    
23.253
20  
8.08
0
VERTEX
10    
23.261
20  
8.08
0
VERTEX
10    
23.279
20  
8.08
0
VERTEX
10    
23.293
20  
8.08
0
VERTEX
10    
23.309
20  
8.08
0
VERTEX
10    
23.329
20  
8.072
0
VERTEX
10    
23.351
20  
8.072
0
VERTEX
10    
23.37
20  
8.072
0
VERTEX
10    
23.414
20  
8.072
0
VERTEX
10    
23.43
20  
8.072
0
VERTEX
10    
23.44
20  
8.068
0
VERTEX
10    
23.459
20  
8.06
0
VERTEX
10    
23.48
20  
8.061
0
VERTEX
10    
23.502
20  
8.057
0
VERTEX
10    
23.513
20  
8.051
0
VERTEX
10    
23.522
20  
8.051
0
VERTEX
10    
23.538
20  
8.051
0
VERTEX
10    
23.538
20  
8.063
0
VERTEX
10    
23.521
20  
8.084
0     
SEQEND
0 
POLYLINE
8     
PlasmaCutterPath
70  
0  
6 
Continuous
40    
0.1
41 
0.1   
43
0.1
0
VERTEX
10    
25.483
20  
8.013
0
VERTEX
10    
25.495
20  
8.019
0
VERTEX
10    
25.506
20  
8.019
0
VERTEX
10    
25.522
20  
8.019
0
VERTEX
10    
25.532
20  
8.019
0
VERTEX
10    
25.544
20  
8.015
0
VERTEX
10    
25.556
20  
8.015
0
VERTEX
10    
25.569
20  
8.015
0
VERTEX
10    
25.593
20  
8.005
0
VERTEX
10    
25.614
20  
8.005
0
VERTEX
10    
25.625
20  
8.005
0
VERTEX
10    
25.638
20  
7.997
0
VERTEX
10    
25.65
20  
7.997
0
VERTEX
10    
25.658
20  
7.992
0
VERTEX
10    
25.679
20  
7.982
0
VERTEX
10    
25.692
20  
7.979
0
VERTEX
10    
25.705
20  
7.969
0
VERTEX
10    
25.725
20  
7.964
0
VERTEX
10    
25.75
20  
7.951
0
VERTEX
10    
25.767
20  
7.953
0
VERTEX
10    
25.779
20  
7.948
0
VERTEX
10    
25.787
20  
7.937
0
VERTEX
10    
25.801
20  
7.939
0
VERTEX
10    
25.801
20  
7.922
0
VERTEX
10    
25.818
20  
7.912
0
VERTEX
10    
25.829
20  
7.912
0
VERTEX
10    
25.829
20  
7.9
0
VERTEX
10    
25.829
20  
7.885
0
VERTEX
10    
25.842
20  
7.871
0
VERTEX
10    
25.842
20  
7.857
0
VERTEX
10    
25.842
20  
7.845
0
VERTEX
10    
25.854
20  
7.845
0
VERTEX
10    
25.854
20  
7.826
0
VERTEX
10    
25.854
20  
7.813
0
VERTEX
10    
25.854
20  
7.791
0
VERTEX
10    
25.854
20  
7.771
0
VERTEX
10    
25.866
20  
7.758
0
VERTEX
10    
25.866
20  
7.747
0
VERTEX
10    
25.866
20  
7.736
0
VERTEX
10    
25.866
20  
7.724
0
VERTEX
10    
25.866
20  
7.71
0
VERTEX
10    
25.866
20  
7.7
0
VERTEX
10    
25.877
20  
7.7
0
VERTEX
10    
25.877
20  
7.681
0
VERTEX
10    
25.877
20  
7.669
0
VERTEX
10    
25.877
20  
7.657
0
VERTEX
10    
25.877
20  
7.65
0
VERTEX
10    
25.877
20  
7.634
0
VERTEX
10    
25.877
20  
7.621
0
VERTEX
10    
25.877
20  
7.603
0
VERTEX
10    
25.887
20  
7.603
0
VERTEX
10    
25.887
20  
7.586
0
VERTEX
10    
25.887
20  
7.575
0
VERTEX
10    
25.887
20  
7.561
0
VERTEX
10    
25.887
20  
7.548
0
VERTEX
10    
25.887
20  
7.529
0
VERTEX
10    
25.887
20  
7.519
0
VERTEX
10    
25.887
20  
7.508
0
VERTEX
10    
25.887
20  
7.49
0
VERTEX
10    
25.893
20  
7.476
0
VERTEX
10    
25.893
20  
7.461
0
VERTEX
10    
25.893
20  
7.443
0
VERTEX
10    
25.893
20  
7.426
0
VERTEX
10    
25.883
20  
7.422
0
VERTEX
10    
25.864
20  
7.414
0
VERTEX
10    
25.837
20  
7.415
0
VERTEX
10    
25.814
20  
7.41
0
VERTEX
10    
25.786
20  
7.4
0
VERTEX
10    
25.741
20  
7.402
0
VERTEX
10    
25.708
20  
7.392
0
VERTEX
10    
25.682
20  
7.392
0
VERTEX
10    
25.66
20  
7.392
0
VERTEX
10    
25.648
20  
7.392
0
VERTEX
10    
25.634
20  
7.392
0
VERTEX
10    
25.624
20  
7.388
0
VERTEX
10    
25.624
20  
7.402
0
VERTEX
10    
25.613
20  
7.414
0
VERTEX
10    
25.613
20  
7.433
0
VERTEX
10    
25.613
20  
7.442
0
VERTEX
10    
25.613
20  
7.47
0
VERTEX
10    
25.613
20  
7.489
0
VERTEX
10    
25.609
20  
7.502
0
VERTEX
10    
25.6
20  
7.516
0
VERTEX
10    
25.602
20  
7.53
0
VERTEX
10    
25.602
20  
7.542
0
VERTEX
10    
25.602
20  
7.557
0
VERTEX
10    
25.595
20  
7.575
0
VERTEX
10    
25.583
20  
7.595
0
VERTEX
10    
25.573
20  
7.6
0
VERTEX
10    
25.573
20  
7.627
0
VERTEX
10    
25.573
20  
7.641
0
VERTEX
10    
25.56
20  
7.658
0
VERTEX
10    
25.56
20  
7.674
0
VERTEX
10    
25.55
20  
7.674
0
VERTEX
10    
25.55
20  
7.692
0
VERTEX
10    
25.538
20  
7.703
0
VERTEX
10    
25.524
20  
7.718
0
VERTEX
10    
25.513
20  
7.73
0
VERTEX
10    
25.495
20  
7.73
0
VERTEX
10    
25.477
20  
7.73
0
VERTEX
10    
25.46
20  
7.715
0
VERTEX
10    
25.441
20  
7.702
0
VERTEX
10    
25.421
20  
7.702
0
VERTEX
10    
25.408
20  
7.689
0
VERTEX
10    
25.392
20  
7.673
0
VERTEX
10    
25.381
20  
7.657
0
VERTEX
10    
25.369
20  
7.639
0
VERTEX
10    
25.369
20  
7.631
0
VERTEX
10    
25.365
20  
7.615
0
VERTEX
10    
25.357
20  
7.609
0
VERTEX
10    
25.359
20  
7.578
0
VERTEX
10    
25.359
20  
7.559
0
VERTEX
10    
25.359
20  
7.543
0
VERTEX
10    
25.359
20  
7.525
0
VERTEX
10    
25.359
20  
7.508
0
VERTEX
10    
25.359
20  
7.48
0
VERTEX
10    
25.359
20  
7.458
0
VERTEX
10    
25.359
20  
7.43
0
VERTEX
10    
25.353
20  
7.395
0
VERTEX
10    
25.353
20  
7.364
0
VERTEX
10    
25.353
20  
7.328
0
VERTEX
10    
25.353
20  
7.295
0
VERTEX
10    
25.353
20  
7.274
0
VERTEX
10    
25.353
20  
7.255
0
VERTEX
10    
25.353
20  
7.236
0
VERTEX
10    
25.353
20  
7.212
0
VERTEX
10    
25.353
20  
7.184
0
VERTEX
10    
25.353
20  
7.15
0
VERTEX
10    
25.353
20  
7.128
0
VERTEX
10    
25.353
20  
7.104
0
VERTEX
10    
25.365
20  
7.086
0
VERTEX
10    
25.365
20  
7.063
0
VERTEX
10    
25.365
20  
7.02
0
VERTEX
10    
25.365
20  
6.956
0
VERTEX
10    
25.365
20  
6.902
0
VERTEX
10    
25.365
20  
6.87
0
VERTEX
10    
25.365
20  
6.846
0
VERTEX
10    
25.365
20  
6.823
0
VERTEX
10    
25.365
20  
6.803
0
VERTEX
10    
25.354
20  
6.789
0
VERTEX
10    
25.354
20  
6.775
0
VERTEX
10    
25.354
20  
6.757
0
VERTEX
10    
25.341
20  
6.743
0
VERTEX
10    
25.341
20  
6.728
0
VERTEX
10    
25.33
20  
6.716
0
VERTEX
10    
25.33
20  
6.698
0
VERTEX
10    
25.33
20  
6.682
0
VERTEX
10    
25.33
20  
6.672
0
VERTEX
10    
25.33
20  
6.646
0
VERTEX
10    
25.33
20  
6.628
0
VERTEX
10    
25.335
20  
6.601
0
VERTEX
10    
25.343
20  
6.562
0
VERTEX
10    
25.343
20  
6.546
0
VERTEX
10    
25.358
20  
6.534
0
VERTEX
10    
25.358
20  
6.515
0
VERTEX
10    
25.374
20  
6.515
0
VERTEX
10    
25.374
20  
6.501
0
VERTEX
10    
25.389
20  
6.501
0
VERTEX
10    
25.389
20  
6.488
0
VERTEX
10    
25.405
20  
6.488
0
VERTEX
10    
25.423
20  
6.475
0
VERTEX
10    
25.437
20  
6.475
0
VERTEX
10    
25.448
20  
6.475
0
VERTEX
10    
25.46
20  
6.475
0
VERTEX
10    
25.476
20  
6.464
0
VERTEX
10    
25.488
20  
6.464
0
VERTEX
10    
25.499
20  
6.464
0
VERTEX
10    
25.511
20  
6.464
0
VERTEX
10    
25.525
20  
6.464
0
VERTEX
10    
25.541
20  
6.477
0
VERTEX
10    
25.546
20  
6.485
0
VERTEX
10    
25.561
20  
6.507
0
VERTEX
10    
25.568
20  
6.521
0
VERTEX
10    
25.572
20  
6.544
0
VERTEX
10    
25.583
20  
6.567
0
VERTEX
10    
25.586
20  
6.597
0
VERTEX
10    
25.592
20  
6.644
0
VERTEX
10    
25.604
20  
6.672
0
VERTEX
10    
25.603
20  
6.685
0
VERTEX
10    
25.603
20  
6.7
0
VERTEX
10    
25.603
20  
6.723
0
VERTEX
10    
25.603
20  
6.738
0
VERTEX
10    
25.603
20  
6.75
0
VERTEX
10    
25.603
20  
6.775
0
VERTEX
10    
25.603
20  
6.8
0
VERTEX
10    
25.603
20  
6.808
0
VERTEX
10    
25.603
20  
6.817
0
VERTEX
10    
25.603
20  
6.826
0
VERTEX
10    
25.603
20  
6.838
0
VERTEX
10    
25.596
20  
6.848
0
VERTEX
10    
25.596
20  
6.859
0
VERTEX
10    
25.596
20  
6.869
0
VERTEX
10    
25.591
20  
6.896
0
VERTEX
10    
25.579
20  
6.904
0
VERTEX
10    
25.581
20  
6.914
0
VERTEX
10    
25.568
20  
6.914
0
VERTEX
10    
25.543
20  
6.914
0
VERTEX
10    
25.521
20  
6.914
0
VERTEX
10    
25.507
20  
6.904
0
VERTEX
10    
25.495
20  
6.904
0
VERTEX
10    
25.483
20  
6.904
0
VERTEX
10    
25.476
20  
6.92
0
VERTEX
10    
25.476
20  
6.946
0
VERTEX
10    
25.476
20  
6.98
0
VERTEX
10    
25.476
20  
6.995
0
VERTEX
10    
25.476
20  
7.014
0
VERTEX
10    
25.476
20  
7.039
0
VERTEX
10    
25.476
20  
7.056
0
VERTEX
10    
25.476
20  
7.067
0
VERTEX
10    
25.476
20  
7.086
0
VERTEX
10    
25.482
20  
7.1
0
VERTEX
10    
25.482
20  
7.112
0
VERTEX
10    
25.482
20  
7.123
0
VERTEX
10    
25.482
20  
7.133
0
VERTEX
10    
25.472
20  
7.133
0
VERTEX
10    
25.472
20  
7.145
0
VERTEX
10    
25.486
20  
7.145
0
VERTEX
10    
25.497
20  
7.145
0
VERTEX
10    
25.516
20  
7.145
0
VERTEX
10    
25.541
20  
7.145
0
VERTEX
10    
25.568
20  
7.145
0
VERTEX
10    
25.589
20  
7.145
0
VERTEX
10    
25.61
20  
7.145
0
VERTEX
10    
25.619
20  
7.145
0
VERTEX
10    
25.628
20  
7.145
0
VERTEX
10    
25.64
20  
7.145
0
VERTEX
10    
25.652
20  
7.145
0
VERTEX
10    
25.664
20  
7.145
0
VERTEX
10    
25.678
20  
7.145
0
VERTEX
10    
25.695
20  
7.148
0
VERTEX
10    
25.725
20  
7.148
0
VERTEX
10    
25.737
20  
7.148
0
VERTEX
10    
25.748
20  
7.148
0
VERTEX
10    
25.759
20  
7.148
0
VERTEX
10    
25.773
20  
7.145
0
VERTEX
10    
25.784
20  
7.145
0
VERTEX
10    
25.795
20  
7.145
0
VERTEX
10    
25.805
20  
7.145
0
VERTEX
10    
25.817
20  
7.145
0
VERTEX
10    
25.828
20  
7.132
0
VERTEX
10    
25.828
20  
7.12
0
VERTEX
10    
25.835
20  
7.087
0
VERTEX
10    
25.848
20  
7.064
0
VERTEX
10    
25.846
20  
7.029
0
VERTEX
10    
25.846
20  
6.995
0
VERTEX
10    
25.846
20  
6.96
0
VERTEX
10    
25.858
20  
6.936
0
VERTEX
10    
25.858
20  
6.913
0
VERTEX
10    
25.858
20  
6.89
0
VERTEX
10    
25.858
20  
6.873
0
VERTEX
10    
25.858
20  
6.857
0
VERTEX
10    
25.858
20  
6.842
0
VERTEX
10    
25.858
20  
6.824
0
VERTEX
10    
25.858
20  
6.809
0
VERTEX
10    
25.858
20  
6.792
0
VERTEX
10    
25.858
20  
6.773
0
VERTEX
10    
25.848
20  
6.756
0
VERTEX
10    
25.848
20  
6.741
0
VERTEX
10    
25.848
20  
6.729
0
VERTEX
10    
25.848
20  
6.715
0
VERTEX
10    
25.848
20  
6.696
0
VERTEX
10    
25.848
20  
6.679
0
VERTEX
10    
25.848
20  
6.655
0
VERTEX
10    
25.848
20  
6.631
0
VERTEX
10    
25.848
20  
6.61
0
VERTEX
10    
25.848
20  
6.591
0
VERTEX
10    
25.848
20  
6.572
0
VERTEX
10    
25.848
20  
6.552
0
VERTEX
10    
25.838
20  
6.529
0
VERTEX
10    
25.838
20  
6.509
0
VERTEX
10    
25.838
20  
6.498
0
VERTEX
10    
25.828
20  
6.482
0
VERTEX
10    
25.828
20  
6.469
0
VERTEX
10    
25.828
20  
6.462
0
VERTEX
10    
25.828
20  
6.447
0
VERTEX
10    
25.828
20  
6.433
0
VERTEX
10    
25.828
20  
6.416
0
VERTEX
10    
25.828
20  
6.402
0
VERTEX
10    
25.828
20  
6.394
0
VERTEX
10    
25.828
20  
6.377
0
VERTEX
10    
25.838
20  
6.363
0
VERTEX
10    
25.838
20  
6.351
0
VERTEX
10    
25.838
20  
6.34
0
VERTEX
10    
25.83
20  
6.34
0
VERTEX
10    
25.809
20  
6.34
0
VERTEX
10    
25.789
20  
6.337
0
VERTEX
10    
25.781
20  
6.329
0
VERTEX
10    
25.773
20  
6.33
0
VERTEX
10    
25.746
20  
6.33
0
VERTEX
10    
25.731
20  
6.326
0
VERTEX
10    
25.723
20  
6.317
0
VERTEX
10    
25.713
20  
6.319
0
VERTEX
10    
25.702
20  
6.319
0
VERTEX
10    
25.702
20  
6.329
0
VERTEX
10    
25.695
20  
6.337
0
VERTEX
10    
25.673
20  
6.36
0
VERTEX
10    
25.651
20  
6.375
0
VERTEX
10    
25.639
20  
6.381
0
VERTEX
10    
25.631
20  
6.379
0
VERTEX
10    
25.631
20  
6.389
0
VERTEX
10    
25.631
20  
6.377
0
VERTEX
10    
25.615
20  
6.377
0
VERTEX
10    
25.615
20  
6.362
0
VERTEX
10    
25.592
20  
6.348
0
VERTEX
10    
25.587
20  
6.334
0
VERTEX
10    
25.569
20  
6.334
0
VERTEX
10    
25.569
20  
6.322
0
VERTEX
10    
25.554
20  
6.322
0
VERTEX
10    
25.554
20  
6.312
0
VERTEX
10    
25.537
20  
6.312
0
VERTEX
10    
25.528
20  
6.312
0
VERTEX
10    
25.506
20  
6.312
0
VERTEX
10    
25.496
20  
6.307
0
VERTEX
10    
25.477
20  
6.299
0
VERTEX
10    
25.445
20  
6.3
0
VERTEX
10    
25.413
20  
6.3
0
VERTEX
10    
25.396
20  
6.3
0
VERTEX
10    
25.373
20  
6.3
0
VERTEX
10    
25.338
20  
6.3
0
VERTEX
10    
25.322
20  
6.3
0
VERTEX
10    
25.311
20  
6.3
0
VERTEX
10    
25.289
20  
6.3
0
VERTEX
10    
25.266
20  
6.3
0
VERTEX
10    
25.256
20  
6.3
0
VERTEX
10    
25.243
20  
6.313
0
VERTEX
10    
25.229
20  
6.313
0
VERTEX
10    
25.229
20  
6.327
0
VERTEX
10    
25.214
20  
6.327
0
VERTEX
10    
25.214
20  
6.345
0
VERTEX
10    
25.195
20  
6.349
0
VERTEX
10    
25.193
20  
6.357
0
VERTEX
10    
25.184
20  
6.356
0
VERTEX
10    
25.186
20  
6.372
0
VERTEX
10    
25.168
20  
6.383
0
VERTEX
10    
25.168
20  
6.399
0
VERTEX
10    
25.145
20  
6.399
0
VERTEX
10    
25.145
20  
6.412
0
VERTEX
10    
25.145
20  
6.426
0
VERTEX
10    
25.133
20  
6.426
0
VERTEX
10    
25.133
20  
6.444
0
VERTEX
10    
25.133
20  
6.457
0
VERTEX
10    
25.133
20  
6.472
0
VERTEX
10    
25.133
20  
6.491
0
VERTEX
10    
25.133
20  
6.511
0
VERTEX
10    
25.122
20  
6.542
0
VERTEX
10    
25.122
20  
6.565
0
VERTEX
10    
25.122
20  
6.589
0
VERTEX
10    
25.122
20  
6.618
0
VERTEX
10    
25.122
20  
6.637
0
VERTEX
10    
25.122
20  
6.657
0
VERTEX
10    
25.122
20  
6.665
0
VERTEX
10    
25.122
20  
6.683
0
VERTEX
10    
25.122
20  
6.702
0
VERTEX
10    
25.122
20  
6.717
0
VERTEX
10    
25.122
20  
6.731
0
VERTEX
10    
25.122
20  
6.743
0
VERTEX
10    
25.112
20  
6.758
0
VERTEX
10    
25.112
20  
6.773
0
VERTEX
10    
25.112
20  
6.795
0
VERTEX
10    
25.112
20  
6.814
0
VERTEX
10    
25.099
20  
6.827
0
VERTEX
10    
25.099
20  
6.844
0
VERTEX
10    
25.099
20  
6.87
0
VERTEX
10    
25.087
20  
6.892
0
VERTEX
10    
25.087
20  
6.915
0
VERTEX
10    
25.087
20  
6.94
0
VERTEX
10    
25.087
20  
6.968
0
VERTEX
10    
25.087
20  
7.001
0
VERTEX
10    
25.087
20  
7.022
0
VERTEX
10    
25.087
20  
7.045
0
VERTEX
10    
25.087
20  
7.07
0
VERTEX
10    
25.087
20  
7.09
0
VERTEX
10    
25.087
20  
7.108
0
VERTEX
10    
25.087
20  
7.138
0
VERTEX
10    
25.087
20  
7.152
0
VERTEX
10    
25.099
20  
7.165
0
VERTEX
10    
25.099
20  
7.176
0
VERTEX
10    
25.099
20  
7.187
0
VERTEX
10    
25.099
20  
7.196
0
VERTEX
10    
25.099
20  
7.211
0
VERTEX
10    
25.099
20  
7.229
0
VERTEX
10    
25.099
20  
7.246
0
VERTEX
10    
25.11
20  
7.246
0
VERTEX
10    
25.11
20  
7.261
0
VERTEX
10    
25.11
20  
7.288
0
VERTEX
10    
25.11
20  
7.309
0
VERTEX
10    
25.11
20  
7.322
0
VERTEX
10    
25.11
20  
7.329
0
VERTEX
10    
25.11
20  
7.344
0
VERTEX
10    
25.11
20  
7.365
0
VERTEX
10    
25.11
20  
7.387
0
VERTEX
10    
25.117
20  
7.428
0
VERTEX
10    
25.117
20  
7.472
0
VERTEX
10    
25.117
20  
7.494
0
VERTEX
10    
25.117
20  
7.512
0
VERTEX
10    
25.117
20  
7.523
0
VERTEX
10    
25.117
20  
7.544
0
VERTEX
10    
25.117
20  
7.559
0
VERTEX
10    
25.117
20  
7.576
0
VERTEX
10    
25.121
20  
7.588
0
VERTEX
10    
25.121
20  
7.602
0
VERTEX
10    
25.121
20  
7.61
0
VERTEX
10    
25.121
20  
7.629
0
VERTEX
10    
25.121
20  
7.646
0
VERTEX
10    
25.121
20  
7.676
0
VERTEX
10    
25.121
20  
7.694
0
VERTEX
10    
25.121
20  
7.707
0
VERTEX
10    
25.121
20  
7.72
0
VERTEX
10    
25.124
20  
7.742
0
VERTEX
10    
25.131
20  
7.785
0
VERTEX
10    
25.13
20  
7.83
0
VERTEX
10    
25.141
20  
7.853
0
VERTEX
10    
25.141
20  
7.871
0
VERTEX
10    
25.141
20  
7.891
0
VERTEX
10    
25.141
20  
7.912
0
VERTEX
10    
25.156
20  
7.932
0
VERTEX
10    
25.167
20  
7.948
0
VERTEX
10    
25.177
20  
7.966
0
VERTEX
10    
25.189
20  
7.983
0
VERTEX
10    
25.206
20  
7.997
0
VERTEX
10    
25.231
20  
8.008
0
VERTEX
10    
25.255
20  
8.008
0
VERTEX
10    
25.265
20  
8.008
0
VERTEX
10    
25.265
20  
8.019
0
VERTEX
10    
25.279
20  
8.019
0
VERTEX
10    
25.293
20  
8.019
0
VERTEX
10    
25.306
20  
8.019
0
VERTEX
10    
25.32
20  
8.019
0
VERTEX
10    
25.337
20  
8.029
0
VERTEX
10    
25.36
20  
8.029
0
VERTEX
10    
25.388
20  
8.029
0
VERTEX
10    
25.438
20  
8.029
0
VERTEX
10    
25.454
20  
8.029
0
VERTEX
10    
25.469
20  
8.029
0
VERTEX
10    
25.481
20  
8.029
0
VERTEX
10    
25.495
20  
8.029
0
VERTEX
10    
25.503
20  
8.027
0
VERTEX
10    
25.513
20  
8.027
0     
SEQEND
0 
POLYLINE
8     
PlasmaCutterPath
70  
0  
6 
Continuous
40    
0.1
41 
0.1   
43
0.1
0
VERTEX
10    
26.486
20  
8.03
0
VERTEX
10    
26.5
20  
8.035
0
VERTEX
10    
26.517
20  
8.035
0
VERTEX
10    
26.527
20  
8.035
0
VERTEX
10    
26.54
20  
8.035
0
VERTEX
10    
26.555
20  
8.035
0
VERTEX
10    
26.575
20  
8.035
0
VERTEX
10    
26.621
20  
8.035
0
VERTEX
10    
26.633
20  
8.035
0
VERTEX
10    
26.641
20  
8.034
0
VERTEX
10    
26.649
20  
8.034
0
VERTEX
10    
26.67
20  
8.034
0
VERTEX
10    
26.677
20  
8.034
0
VERTEX
10    
26.685
20  
8.035
0
VERTEX
10    
26.704
20  
8.035
0
VERTEX
10    
26.714
20  
8.035
0
VERTEX
10    
26.715
20  
8.026
0
VERTEX
10    
26.715
20  
8.015
0
VERTEX
10    
26.715
20  
8.001
0
VERTEX
10    
26.725
20  
8.001
0
VERTEX
10    
26.725
20  
7.987
0
VERTEX
10    
26.725
20  
7.969
0
VERTEX
10    
26.725
20  
7.958
0
VERTEX
10    
26.725
20  
7.939
0
VERTEX
10    
26.729
20  
7.931
0
VERTEX
10    
26.737
20  
7.911
0
VERTEX
10    
26.736
20  
7.899
0
VERTEX
10    
26.736
20  
7.882
0
VERTEX
10    
26.736
20  
7.855
0
VERTEX
10    
26.739
20  
7.825
0
VERTEX
10    
26.747
20  
7.815
0
VERTEX
10    
26.746
20  
7.798
0
VERTEX
10    
26.746
20  
7.764
0
VERTEX
10    
26.746
20  
7.744
0
VERTEX
10    
26.746
20  
7.729
0
VERTEX
10    
26.746
20  
7.714
0
VERTEX
10    
26.746
20  
7.701
0
VERTEX
10    
26.746
20  
7.693
0
VERTEX
10    
26.746
20  
7.673
0
VERTEX
10    
26.746
20  
7.663
0
VERTEX
10    
26.747
20  
7.651
0
VERTEX
10    
26.749
20  
7.639
0
VERTEX
10    
26.749
20  
7.625
0
VERTEX
10    
26.749
20  
7.616
0
VERTEX
10    
26.749
20  
7.594
0
VERTEX
10    
26.749
20  
7.578
0
VERTEX
10    
26.749
20  
7.56
0
VERTEX
10    
26.758
20  
7.553
0
VERTEX
10    
26.757
20  
7.534
0
VERTEX
10    
26.757
20  
7.518
0
VERTEX
10    
26.757
20  
7.501
0
VERTEX
10    
26.762
20  
7.485
0
VERTEX
10    
26.77
20  
7.466
0
VERTEX
10    
26.769
20  
7.439
0
VERTEX
10    
26.769
20  
7.401
0
VERTEX
10    
26.769
20  
7.329
0
VERTEX
10    
26.78
20  
7.302
0
VERTEX
10    
26.78
20  
7.281
0
VERTEX
10    
26.78
20  
7.264
0
VERTEX
10    
26.78
20  
7.252
0
VERTEX
10    
26.78
20  
7.237
0
VERTEX
10    
26.78
20  
7.225
0
VERTEX
10    
26.78
20  
7.213
0
VERTEX
10    
26.79
20  
7.201
0
VERTEX
10    
26.79
20  
7.186
0
VERTEX
10    
26.79
20  
7.174
0
VERTEX
10    
26.79
20  
7.164
0
VERTEX
10    
26.79
20  
7.148
0
VERTEX
10    
26.79
20  
7.137
0
VERTEX
10    
26.79
20  
7.119
0
VERTEX
10    
26.803
20  
7.099
0
VERTEX
10    
26.801
20  
7.082
0
VERTEX
10    
26.801
20  
7.059
0
VERTEX
10    
26.801
20  
7.038
0
VERTEX
10    
26.801
20  
7.025
0
VERTEX
10    
26.801
20  
7.013
0
VERTEX
10    
26.805
20  
6.998
0
VERTEX
10    
26.812
20  
6.981
0
VERTEX
10    
26.812
20  
6.963
0
VERTEX
10    
26.812
20  
6.948
0
VERTEX
10    
26.812
20  
6.93
0
VERTEX
10    
26.812
20  
6.918
0
VERTEX
10    
26.812
20  
6.905
0
VERTEX
10    
26.812
20  
6.892
0
VERTEX
10    
26.812
20  
6.871
0
VERTEX
10    
26.824
20  
6.854
0
VERTEX
10    
26.824
20  
6.842
0
VERTEX
10    
26.824
20  
6.834
0
VERTEX
10    
26.824
20  
6.818
0
VERTEX
10    
26.824
20  
6.808
0
VERTEX
10    
26.824
20  
6.793
0
VERTEX
10    
26.824
20  
6.786
0
VERTEX
10    
26.828
20  
6.766
0
VERTEX
10    
26.834
20  
6.757
0
VERTEX
10    
26.834
20  
6.746
0
VERTEX
10    
26.834
20  
6.732
0
VERTEX
10    
26.834
20  
6.723
0
VERTEX
10    
26.834
20  
6.7
0
VERTEX
10    
26.838
20  
6.687
0
VERTEX
10    
26.845
20  
6.667
0
VERTEX
10    
26.843
20  
6.653
0
VERTEX
10    
26.843
20  
6.645
0
VERTEX
10    
26.843
20  
6.624
0
VERTEX
10    
26.843
20  
6.61
0
VERTEX
10    
26.843
20  
6.592
0
VERTEX
10    
26.843
20  
6.584
0
VERTEX
10    
26.843
20  
6.568
0
VERTEX
10    
26.847
20  
6.557
0
VERTEX
10    
26.855
20  
6.52
0
VERTEX
10    
26.854
20  
6.497
0
VERTEX
10    
26.854
20  
6.481
0
VERTEX
10    
26.854
20  
6.469
0
VERTEX
10    
26.854
20  
6.451
0
VERTEX
10    
26.854
20  
6.433
0
VERTEX
10    
26.854
20  
6.422
0
VERTEX
10    
26.854
20  
6.415
0
VERTEX
10    
26.854
20  
6.405
0
VERTEX
10    
26.859
20  
6.393
0
VERTEX
10    
26.859
20  
6.382
0
VERTEX
10    
26.859
20  
6.372
0
VERTEX
10    
26.862
20  
6.356
0
VERTEX
10    
26.862
20  
6.343
0
VERTEX
10    
26.862
20  
6.329
0
VERTEX
10    
26.862
20  
6.312
0
VERTEX
10    
26.862
20  
6.301
0
VERTEX
10    
26.862
20  
6.289
0
VERTEX
10    
26.872
20  
6.289
0
VERTEX
10    
26.872
20  
6.278
0
VERTEX
10    
26.872
20  
6.267
0
VERTEX
10    
26.872
20  
6.248
0
VERTEX
10    
26.883
20  
6.248
0
VERTEX
10    
26.883
20  
6.238
0
VERTEX
10    
26.87
20  
6.238
0
VERTEX
10    
26.853
20  
6.238
0
VERTEX
10    
26.842
20  
6.238
0
VERTEX
10    
26.828
20  
6.238
0
VERTEX
10    
26.817
20  
6.238
0
VERTEX
10    
26.801
20  
6.238
0
VERTEX
10    
26.786
20  
6.238
0
VERTEX
10    
26.772
20  
6.238
0
VERTEX
10    
26.756
20  
6.238
0
VERTEX
10    
26.742
20  
6.238
0
VERTEX
10    
26.725
20  
6.238
0
VERTEX
10    
26.715
20  
6.238
0
VERTEX
10    
26.715
20  
6.249
0
VERTEX
10    
26.704
20  
6.249
0
VERTEX
10    
26.691
20  
6.249
0
VERTEX
10    
26.68
20  
6.249
0
VERTEX
10    
26.672
20  
6.249
0
VERTEX
10    
26.673
20  
6.264
0
VERTEX
10    
26.673
20  
6.281
0
VERTEX
10    
26.673
20  
6.294
0
VERTEX
10    
26.673
20  
6.314
0
VERTEX
10    
26.673
20  
6.331
0
VERTEX
10    
26.663
20  
6.348
0
VERTEX
10    
26.663
20  
6.36
0
VERTEX
10    
26.663
20  
6.372
0
VERTEX
10    
26.663
20  
6.384
0
VERTEX
10    
26.658
20  
6.401
0
VERTEX
10    
26.658
20  
6.413
0
VERTEX
10    
26.658
20  
6.422
0
VERTEX
10    
26.658
20  
6.443
0
VERTEX
10    
26.658
20  
6.454
0
VERTEX
10    
26.658
20  
6.468
0
VERTEX
10    
26.654
20  
6.481
0
VERTEX
10    
26.646
20  
6.484
0
VERTEX
10    
26.647
20  
6.496
0
VERTEX
10    
26.647
20  
6.512
0
VERTEX
10    
26.647
20  
6.525
0
VERTEX
10    
26.647
20  
6.537
0
VERTEX
10    
26.642
20  
6.549
0
VERTEX
10    
26.642
20  
6.567
0
VERTEX
10    
26.642
20  
6.581
0
VERTEX
10    
26.631
20  
6.597
0
VERTEX
10    
26.621
20  
6.607
0
VERTEX
10    
26.609
20  
6.607
0
VERTEX
10    
26.59
20  
6.612
0
VERTEX
10    
26.566
20  
6.622
0
VERTEX
10    
26.538
20  
6.626
0
VERTEX
10    
26.53
20  
6.638
0
VERTEX
10    
26.521
20  
6.636
0
VERTEX
10    
26.521
20  
6.65
0
VERTEX
10    
26.521
20  
6.662
0
VERTEX
10    
26.523
20  
6.674
0
VERTEX
10    
26.523
20  
6.687
0
VERTEX
10    
26.523
20  
6.698
0
VERTEX
10    
26.523
20  
6.71
0
VERTEX
10    
26.523
20  
6.724
0
VERTEX
10    
26.523
20  
6.738
0
VERTEX
10    
26.522
20  
6.751
0
VERTEX
10    
26.522
20  
6.76
0
VERTEX
10    
26.522
20  
6.779
0
VERTEX
10    
26.522
20  
6.789
0
VERTEX
10    
26.522
20  
6.8
0
VERTEX
10    
26.529
20  
6.8
0
VERTEX
10    
26.529
20  
6.812
0
VERTEX
10    
26.529
20  
6.823
0
VERTEX
10    
26.529
20  
6.837
0
VERTEX
10    
26.542
20  
6.839
0
VERTEX
10    
26.562
20  
6.839
0
VERTEX
10    
26.572
20  
6.839
0
VERTEX
10    
26.584
20  
6.85
0
VERTEX
10    
26.594
20  
6.85
0
VERTEX
10    
26.611
20  
6.85
0
VERTEX
10    
26.619
20  
6.856
0
VERTEX
10    
26.618
20  
6.871
0
VERTEX
10    
26.607
20  
6.871
0
VERTEX
10    
26.607
20  
6.882
0
VERTEX
10    
26.607
20  
6.894
0
VERTEX
10    
26.607
20  
6.902
0
VERTEX
10    
26.603
20  
6.922
0
VERTEX
10    
26.596
20  
6.928
0
VERTEX
10    
26.597
20  
6.941
0
VERTEX
10    
26.597
20  
6.956
0
VERTEX
10    
26.597
20  
6.986
0
VERTEX
10    
26.597
20  
7.007
0
VERTEX
10    
26.597
20  
7.022
0
VERTEX
10    
26.587
20  
7.034
0
VERTEX
10    
26.587
20  
7.048
0
VERTEX
10    
26.587
20  
7.062
0
VERTEX
10    
26.587
20  
7.079
0
VERTEX
10    
26.574
20  
7.098
0
VERTEX
10    
26.574
20  
7.115
0
VERTEX
10    
26.574
20  
7.131
0
VERTEX
10    
26.563
20  
7.131
0
VERTEX
10    
26.563
20  
7.149
0
VERTEX
10    
26.563
20  
7.16
0
VERTEX
10    
26.563
20  
7.172
0
VERTEX
10    
26.563
20  
7.19
0
VERTEX
10    
26.559
20  
7.207
0
VERTEX
10    
26.552
20  
7.237
0
VERTEX
10    
26.552
20  
7.251
0
VERTEX
10    
26.552
20  
7.263
0
VERTEX
10    
26.552
20  
7.276
0
VERTEX
10    
26.547
20  
7.287
0
VERTEX
10    
26.547
20  
7.302
0
VERTEX
10    
26.547
20  
7.314
0
VERTEX
10    
26.547
20  
7.328
0
VERTEX
10    
26.547
20  
7.351
0
VERTEX
10    
26.547
20  
7.369
0
VERTEX
10    
26.547
20  
7.384
0
VERTEX
10    
26.537
20  
7.396
0
VERTEX
10    
26.537
20  
7.404
0
VERTEX
10    
26.535
20  
7.396
0
VERTEX
10    
26.535
20  
7.373
0
VERTEX
10    
26.531
20  
7.357
0
VERTEX
10    
26.523
20  
7.33
0
VERTEX
10    
26.517
20  
7.293
0
VERTEX
10    
26.502
20  
7.271
0
VERTEX
10    
26.5
20  
7.251
0
VERTEX
10    
26.492
20  
7.235
0
VERTEX
10    
26.493
20  
7.223
0
VERTEX
10    
26.493
20  
7.214
0
VERTEX
10    
26.48
20  
7.194
0
VERTEX
10    
26.48
20  
7.176
0
VERTEX
10    
26.48
20  
7.162
0
VERTEX
10    
26.464
20  
7.144
0
VERTEX
10    
26.464
20  
7.132
0
VERTEX
10    
26.464
20  
7.112
0
VERTEX
10    
26.453
20  
7.094
0
VERTEX
10    
26.453
20  
7.073
0
VERTEX
10    
26.453
20  
7.052
0
VERTEX
10    
26.453
20  
7.031
0
VERTEX
10    
26.44
20  
7.011
0
VERTEX
10    
26.44
20  
6.986
0
VERTEX
10    
26.44
20  
6.969
0
VERTEX
10    
26.44
20  
6.94
0
VERTEX
10    
26.44
20  
6.92
0
VERTEX
10    
26.44
20  
6.902
0
VERTEX
10    
26.44
20  
6.889
0
VERTEX
10    
26.429
20  
6.876
0
VERTEX
10    
26.439
20  
6.869
0
VERTEX
10    
26.449
20  
6.859
0
VERTEX
10    
26.46
20  
6.859
0
VERTEX
10    
26.459
20  
6.851
0
VERTEX
10    
26.459
20  
6.83
0
VERTEX
10    
26.459
20  
6.816
0
VERTEX
10    
26.459
20  
6.803
0
VERTEX
10    
26.459
20  
6.793
0
VERTEX
10    
26.459
20  
6.785
0
VERTEX
10    
26.459
20  
6.776
0
VERTEX
10    
26.459
20  
6.764
0
VERTEX
10    
26.459
20  
6.748
0
VERTEX
10    
26.458
20  
6.737
0
VERTEX
10    
26.458
20  
6.729
0
VERTEX
10    
26.458
20  
6.712
0
VERTEX
10    
26.458
20  
6.7
0
VERTEX
10    
26.458
20  
6.684
0
VERTEX
10    
26.455
20  
6.671
0
VERTEX
10    
26.455
20  
6.657
0
VERTEX
10    
26.455
20  
6.647
0
VERTEX
10    
26.455
20  
6.622
0
VERTEX
10    
26.446
20  
6.618
0
VERTEX
10    
26.447
20  
6.607
0
VERTEX
10    
26.437
20  
6.607
0
VERTEX
10    
26.416
20  
6.607
0
VERTEX
10    
26.4
20  
6.607
0
VERTEX
10    
26.397
20  
6.587
0
VERTEX
10    
26.397
20  
6.575
0
VERTEX
10    
26.397
20  
6.561
0
VERTEX
10    
26.397
20  
6.548
0
VERTEX
10    
26.397
20  
6.532
0
VERTEX
10    
26.397
20  
6.515
0
VERTEX
10    
26.397
20  
6.499
0
VERTEX
10    
26.397
20  
6.482
0
VERTEX
10    
26.397
20  
6.47
0
VERTEX
10    
26.385
20  
6.458
0
VERTEX
10    
26.385
20  
6.444
0
VERTEX
10    
26.385
20  
6.428
0
VERTEX
10    
26.385
20  
6.42
0
VERTEX
10    
26.381
20  
6.404
0
VERTEX
10    
26.372
20  
6.401
0
VERTEX
10    
26.373
20  
6.379
0
VERTEX
10    
26.373
20  
6.366
0
VERTEX
10    
26.373
20  
6.358
0
VERTEX
10    
26.368
20  
6.344
0
VERTEX
10    
26.358
20  
6.339
0
VERTEX
10    
26.36
20  
6.324
0
VERTEX
10    
26.36
20  
6.312
0
VERTEX
10    
26.36
20  
6.295
0
VERTEX
10    
26.36
20  
6.283
0
VERTEX
10    
26.352
20  
6.283
0
VERTEX
10    
26.352
20  
6.272
0
VERTEX
10    
26.341
20  
6.272
0
VERTEX
10    
26.329
20  
6.272
0
VERTEX
10    
26.318
20  
6.272
0
VERTEX
10    
26.304
20  
6.272
0
VERTEX
10    
26.289
20  
6.272
0
VERTEX
10    
26.289
20  
6.262
0
VERTEX
10    
26.271
20  
6.262
0
VERTEX
10    
26.255
20  
6.262
0
VERTEX
10    
26.229
20  
6.262
0
VERTEX
10    
26.181
20  
6.262
0
VERTEX
10    
26.159
20  
6.262
0
VERTEX
10    
26.149
20  
6.262
0
VERTEX
10    
26.139
20  
6.262
0
VERTEX
10    
26.13
20  
6.262
0
VERTEX
10    
26.104
20  
6.266
0
VERTEX
10    
26.081
20  
6.273
0
VERTEX
10    
26.071
20  
6.272
0
VERTEX
10    
26.058
20  
6.272
0
VERTEX
10    
26.058
20  
6.289
0
VERTEX
10    
26.058
20  
6.304
0
VERTEX
10    
26.069
20  
6.324
0
VERTEX
10    
26.069
20  
6.346
0
VERTEX
10    
26.088
20  
6.361
0
VERTEX
10    
26.088
20  
6.371
0
VERTEX
10    
26.1
20  
6.384
0
VERTEX
10    
26.1
20  
6.408
0
VERTEX
10    
26.114
20  
6.435
0
VERTEX
10    
26.114
20  
6.471
0
VERTEX
10    
26.126
20  
6.471
0
VERTEX
10    
26.126
20  
6.483
0
VERTEX
10    
26.126
20  
6.49
0
VERTEX
10    
26.126
20  
6.518
0
VERTEX
10    
26.131
20  
6.551
0
VERTEX
10    
26.14
20  
6.569
0
VERTEX
10    
26.139
20  
6.586
0
VERTEX
10    
26.139
20  
6.597
0
VERTEX
10    
26.139
20  
6.614
0
VERTEX
10    
26.139
20  
6.644
0
VERTEX
10    
26.155
20  
6.665
0
VERTEX
10    
26.155
20  
6.68
0
VERTEX
10    
26.155
20  
6.689
0
VERTEX
10    
26.155
20  
6.714
0
VERTEX
10    
26.159
20  
6.726
0
VERTEX
10    
26.168
20  
6.737
0
VERTEX
10    
26.166
20  
6.749
0
VERTEX
10    
26.166
20  
6.769
0
VERTEX
10    
26.173
20  
6.791
0
VERTEX
10    
26.186
20  
6.802
0
VERTEX
10    
26.183
20  
6.815
0
VERTEX
10    
26.183
20  
6.83
0
VERTEX
10    
26.194
20  
6.862
0
VERTEX
10    
26.206
20  
6.91
0
VERTEX
10    
26.206
20  
6.963
0
VERTEX
10    
26.206
20  
6.984
0
VERTEX
10    
26.206
20  
6.993
0
VERTEX
10    
26.216
20  
7.041
0
VERTEX
10    
26.216
20  
7.101
0
VERTEX
10    
26.216
20  
7.139
0
VERTEX
10    
26.216
20  
7.154
0
VERTEX
10    
26.229
20  
7.172
0
VERTEX
10    
26.229
20  
7.195
0
VERTEX
10    
26.241
20  
7.224
0
VERTEX
10    
26.241
20  
7.245
0
VERTEX
10    
26.241
20  
7.265
0
VERTEX
10    
26.258
20  
7.29
0
VERTEX
10    
26.258
20  
7.321
0
VERTEX
10    
26.273
20  
7.352
0
VERTEX
10    
26.273
20  
7.371
0
VERTEX
10    
26.273
20  
7.39
0
VERTEX
10    
26.286
20  
7.414
0
VERTEX
10    
26.286
20  
7.438
0
VERTEX
10    
26.297
20  
7.476
0
VERTEX
10    
26.297
20  
7.504
0
VERTEX
10    
26.297
20  
7.518
0
VERTEX
10    
26.297
20  
7.531
0
VERTEX
10    
26.308
20  
7.531
0
VERTEX
10    
26.308
20  
7.568
0
VERTEX
10    
26.308
20  
7.591
0
VERTEX
10    
26.321
20  
7.607
0
VERTEX
10    
26.321
20  
7.615
0
VERTEX
10    
26.321
20  
7.639
0
VERTEX
10    
26.326
20  
7.657
0
VERTEX
10    
26.336
20  
7.678
0
VERTEX
10    
26.334
20  
7.697
0
VERTEX
10    
26.338
20  
7.717
0
VERTEX
10    
26.346
20  
7.737
0
VERTEX
10    
26.344
20  
7.758
0
VERTEX
10    
26.344
20  
7.781
0
VERTEX
10    
26.344
20  
7.807
0
VERTEX
10    
26.36
20  
7.865
0
VERTEX
10    
26.36
20  
7.877
0
VERTEX
10    
26.36
20  
7.894
0
VERTEX
10    
26.36
20  
7.904
0
VERTEX
10    
26.36
20  
7.918
0
VERTEX
10    
26.36
20  
7.934
0
VERTEX
10    
26.371
20  
7.946
0
VERTEX
10    
26.371
20  
7.958
0
VERTEX
10    
26.371
20  
7.971
0
VERTEX
10    
26.371
20  
7.985
0
VERTEX
10    
26.379
20  
7.999
0
VERTEX
10    
26.379
20  
8.011
0
VERTEX
10    
26.379
20  
8.02
0
VERTEX
10    
26.384
20  
8.037
0
VERTEX
10    
26.393
20  
8.034
0
VERTEX
10    
26.404
20  
8.046
0
VERTEX
10    
26.418
20  
8.046
0
VERTEX
10    
26.437
20  
8.046
0
VERTEX
10    
26.479
20  
8.046
0
VERTEX
10    
26.51
20  
8.046
0
VERTEX
10    
26.526
20  
8.046
0
VERTEX
10    
26.537
20  
8.05
0
VERTEX
10    
26.534
20  
8.039
0     
SEQEND
0 
POLYLINE
8     
PlasmaCutterPath
70  
0  
6 
Continuous
40    
0.1
41 
0.1   
43
0.1
0
VERTEX
10    
27.638
20  
8.001
0
VERTEX
10    
27.63
20  
8.007
0
VERTEX
10    
27.648
20  
8.007
0
VERTEX
10    
27.663
20  
8.007
0
VERTEX
10    
27.688
20  
8.007
0
VERTEX
10    
27.733
20  
8.007
0
VERTEX
10    
27.77
20  
8.007
0
VERTEX
10    
27.81
20  
8.007
0
VERTEX
10    
27.828
20  
8.007
0
VERTEX
10    
27.845
20  
8.007
0
VERTEX
10    
27.863
20  
8
0
VERTEX
10    
27.88
20  
8
0
VERTEX
10    
27.896
20  
8
0
VERTEX
10    
27.906
20  
8
0
VERTEX
10    
27.919
20  
8
0
VERTEX
10    
27.94
20  
8
0
VERTEX
10    
27.96
20  
8
0
VERTEX
10    
27.971
20  
8
0
VERTEX
10    
27.986
20  
8
0
VERTEX
10    
27.994
20  
8.004
0
VERTEX
10    
28.005
20  
8.004
0
VERTEX
10    
28.017
20  
8.004
0
VERTEX
10    
28.026
20  
7.999
0
VERTEX
10    
28.034
20  
7.99
0
VERTEX
10    
28.052
20  
7.978
0
VERTEX
10    
28.063
20  
7.968
0
VERTEX
10    
28.063
20  
7.957
0
VERTEX
10    
28.063
20  
7.946
0
VERTEX
10    
28.063
20  
7.935
0
VERTEX
10    
28.063
20  
7.923
0
VERTEX
10    
28.063
20  
7.904
0
VERTEX
10    
28.063
20  
7.882
0
VERTEX
10    
28.063
20  
7.857
0
VERTEX
10    
28.063
20  
7.829
0
VERTEX
10    
28.063
20  
7.801
0
VERTEX
10    
28.063
20  
7.782
0
VERTEX
10    
28.063
20  
7.763
0
VERTEX
10    
28.051
20  
7.744
0
VERTEX
10    
28.051
20  
7.73
0
VERTEX
10    
28.051
20  
7.714
0
VERTEX
10    
28.051
20  
7.701
0
VERTEX
10    
28.043
20  
7.701
0
VERTEX
10    
28.043
20  
7.689
0
VERTEX
10    
28.029
20  
7.689
0
VERTEX
10    
28.015
20  
7.689
0
VERTEX
10    
28.004
20  
7.689
0
VERTEX
10    
27.986
20  
7.689
0
VERTEX
10    
27.973
20  
7.689
0
VERTEX
10    
27.961
20  
7.7
0
VERTEX
10    
27.945
20  
7.7
0
VERTEX
10    
27.927
20  
7.7
0
VERTEX
10    
27.911
20  
7.7
0
VERTEX
10    
27.891
20  
7.7
0
VERTEX
10    
27.877
20  
7.7
0
VERTEX
10    
27.877
20  
7.708
0
VERTEX
10    
27.863
20  
7.708
0
VERTEX
10    
27.846
20  
7.708
0
VERTEX
10    
27.835
20  
7.708
0
VERTEX
10    
27.82
20  
7.708
0
VERTEX
10    
27.808
20  
7.708
0
VERTEX
10    
27.797
20  
7.708
0
VERTEX
10    
27.797
20  
7.696
0
VERTEX
10    
27.797
20  
7.681
0
VERTEX
10    
27.797
20  
7.668
0
VERTEX
10    
27.797
20  
7.657
0
VERTEX
10    
27.786
20  
7.642
0
VERTEX
10    
27.786
20  
7.623
0
VERTEX
10    
27.786
20  
7.606
0
VERTEX
10    
27.786
20  
7.589
0
VERTEX
10    
27.786
20  
7.58
0
VERTEX
10    
27.786
20  
7.557
0
VERTEX
10    
27.786
20  
7.546
0
VERTEX
10    
27.786
20  
7.534
0
VERTEX
10    
27.786
20  
7.522
0
VERTEX
10    
27.786
20  
7.506
0
VERTEX
10    
27.782
20  
7.487
0
VERTEX
10    
27.773
20  
7.467
0
VERTEX
10    
27.775
20  
7.447
0
VERTEX
10    
27.775
20  
7.428
0
VERTEX
10    
27.775
20  
7.405
0
VERTEX
10    
27.775
20  
7.375
0
VERTEX
10    
27.761
20  
7.334
0
VERTEX
10    
27.761
20  
7.297
0
VERTEX
10    
27.761
20  
7.268
0
VERTEX
10    
27.749
20  
7.248
0
VERTEX
10    
27.749
20  
7.229
0
VERTEX
10    
27.749
20  
7.213
0
VERTEX
10    
27.749
20  
7.196
0
VERTEX
10    
27.749
20  
7.176
0
VERTEX
10    
27.749
20  
7.156
0
VERTEX
10    
27.749
20  
7.136
0
VERTEX
10    
27.749
20  
7.117
0
VERTEX
10    
27.749
20  
7.091
0
VERTEX
10    
27.749
20  
7.062
0
VERTEX
10    
27.749
20  
7.018
0
VERTEX
10    
27.749
20  
6.971
0
VERTEX
10    
27.749
20  
6.938
0
VERTEX
10    
27.742
20  
6.904
0
VERTEX
10    
27.742
20  
6.879
0
VERTEX
10    
27.742
20  
6.858
0
VERTEX
10    
27.742
20  
6.838
0
VERTEX
10    
27.742
20  
6.818
0
VERTEX
10    
27.742
20  
6.801
0
VERTEX
10    
27.742
20  
6.789
0
VERTEX
10    
27.742
20  
6.776
0
VERTEX
10    
27.742
20  
6.761
0
VERTEX
10    
27.731
20  
6.749
0
VERTEX
10    
27.731
20  
6.734
0
VERTEX
10    
27.731
20  
6.717
0
VERTEX
10    
27.731
20  
6.703
0
VERTEX
10    
27.731
20  
6.688
0
VERTEX
10    
27.731
20  
6.673
0
VERTEX
10    
27.731
20  
6.654
0
VERTEX
10    
27.731
20  
6.631
0
VERTEX
10    
27.731
20  
6.609
0
VERTEX
10    
27.731
20  
6.578
0
VERTEX
10    
27.721
20  
6.56
0
VERTEX
10    
27.721
20  
6.547
0
VERTEX
10    
27.721
20  
6.532
0
VERTEX
10    
27.721
20  
6.514
0
VERTEX
10    
27.721
20  
6.496
0
VERTEX
10    
27.721
20  
6.484
0
VERTEX
10    
27.709
20  
6.484
0
VERTEX
10    
27.709
20  
6.467
0
VERTEX
10    
27.709
20  
6.454
0
VERTEX
10    
27.709
20  
6.443
0
VERTEX
10    
27.709
20  
6.433
0
VERTEX
10    
27.709
20  
6.42
0
VERTEX
10    
27.709
20  
6.41
0
VERTEX
10    
27.709
20  
6.397
0
VERTEX
10    
27.709
20  
6.386
0
VERTEX
10    
27.709
20  
6.375
0
VERTEX
10    
27.709
20  
6.357
0
VERTEX
10    
27.709
20  
6.343
0
VERTEX
10    
27.709
20  
6.331
0
VERTEX
10    
27.709
20  
6.32
0
VERTEX
10    
27.709
20  
6.308
0
VERTEX
10    
27.704
20  
6.295
0
VERTEX
10    
27.704
20  
6.279
0
VERTEX
10    
27.704
20  
6.269
0
VERTEX
10    
27.704
20  
6.255
0
VERTEX
10    
27.692
20  
6.255
0
VERTEX
10    
27.692
20  
6.245
0
VERTEX
10    
27.681
20  
6.245
0
VERTEX
10    
27.66
20  
6.241
0
VERTEX
10    
27.658
20  
6.233
0
VERTEX
10    
27.647
20  
6.235
0
VERTEX
10    
27.635
20  
6.223
0
VERTEX
10    
27.617
20  
6.223
0
VERTEX
10    
27.598
20  
6.223
0
VERTEX
10    
27.587
20  
6.223
0
VERTEX
10    
27.569
20  
6.234
0
VERTEX
10    
27.553
20  
6.234
0
VERTEX
10    
27.542
20  
6.234
0
VERTEX
10    
27.53
20  
6.234
0
VERTEX
10    
27.53
20  
6.245
0
VERTEX
10    
27.513
20  
6.245
0
VERTEX
10    
27.497
20  
6.245
0
VERTEX
10    
27.487
20  
6.245
0
VERTEX
10    
27.487
20  
6.255
0
VERTEX
10    
27.487
20  
6.27
0
VERTEX
10    
27.487
20  
6.284
0
VERTEX
10    
27.487
20  
6.301
0
VERTEX
10    
27.487
20  
6.314
0
VERTEX
10    
27.487
20  
6.332
0
VERTEX
10    
27.479
20  
6.332
0
VERTEX
10    
27.479
20  
6.347
0
VERTEX
10    
27.479
20  
6.358
0
VERTEX
10    
27.479
20  
6.385
0
VERTEX
10    
27.479
20  
6.398
0
VERTEX
10    
27.479
20  
6.41
0
VERTEX
10    
27.479
20  
6.423
0
VERTEX
10    
27.479
20  
6.438
0
VERTEX
10    
27.479
20  
6.464
0
VERTEX
10    
27.483
20  
6.488
0
VERTEX
10    
27.492
20  
6.505
0
VERTEX
10    
27.491
20  
6.525
0
VERTEX
10    
27.491
20  
6.549
0
VERTEX
10    
27.491
20  
6.575
0
VERTEX
10    
27.494
20  
6.61
0
VERTEX
10    
27.501
20  
6.675
0
VERTEX
10    
27.501
20  
6.703
0
VERTEX
10    
27.501
20  
6.717
0
VERTEX
10    
27.501
20  
6.725
0
VERTEX
10    
27.501
20  
6.748
0
VERTEX
10    
27.501
20  
6.765
0
VERTEX
10    
27.501
20  
6.788
0
VERTEX
10    
27.501
20  
6.804
0
VERTEX
10    
27.507
20  
6.827
0
VERTEX
10    
27.507
20  
6.84
0
VERTEX
10    
27.507
20  
6.858
0
VERTEX
10    
27.507
20  
6.878
0
VERTEX
10    
27.507
20  
6.9
0
VERTEX
10    
27.507
20  
6.929
0
VERTEX
10    
27.507
20  
6.961
0
VERTEX
10    
27.507
20  
7.001
0
VERTEX
10    
27.507
20  
7.036
0
VERTEX
10    
27.507
20  
7.073
0
VERTEX
10    
27.507
20  
7.111
0
VERTEX
10    
27.507
20  
7.138
0
VERTEX
10    
27.507
20  
7.164
0
VERTEX
10    
27.507
20  
7.189
0
VERTEX
10    
27.507
20  
7.213
0
VERTEX
10    
27.495
20  
7.237
0
VERTEX
10    
27.495
20  
7.261
0
VERTEX
10    
27.495
20  
7.29
0
VERTEX
10    
27.495
20  
7.32
0
VERTEX
10    
27.495
20  
7.354
0
VERTEX
10    
27.495
20  
7.378
0
VERTEX
10    
27.495
20  
7.401
0
VERTEX
10    
27.495
20  
7.428
0
VERTEX
10    
27.495
20  
7.465
0
VERTEX
10    
27.495
20  
7.493
0
VERTEX
10    
27.495
20  
7.514
0
VERTEX
10    
27.495
20  
7.53
0
VERTEX
10    
27.504
20  
7.541
0
VERTEX
10    
27.504
20  
7.549
0
VERTEX
10    
27.504
20  
7.571
0
VERTEX
10    
27.504
20  
7.58
0
VERTEX
10    
27.504
20  
7.595
0
VERTEX
10    
27.504
20  
7.604
0
VERTEX
10    
27.504
20  
7.623
0
VERTEX
10    
27.504
20  
7.636
0
VERTEX
10    
27.504
20  
7.654
0
VERTEX
10    
27.504
20  
7.668
0
VERTEX
10    
27.504
20  
7.681
0
VERTEX
10    
27.504
20  
7.69
0
VERTEX
10    
27.504
20  
7.706
0
VERTEX
10    
27.504
20  
7.714
0
VERTEX
10    
27.496
20  
7.717
0
VERTEX
10    
27.476
20  
7.713
0
VERTEX
10    
27.451
20  
7.705
0
VERTEX
10    
27.433
20  
7.707
0
VERTEX
10    
27.413
20  
7.707
0
VERTEX
10    
27.398
20  
7.707
0
VERTEX
10    
27.382
20  
7.707
0
VERTEX
10    
27.369
20  
7.707
0
VERTEX
10    
27.357
20  
7.707
0
VERTEX
10    
27.342
20  
7.707
0
VERTEX
10    
27.321
20  
7.707
0
VERTEX
10    
27.3
20  
7.711
0
VERTEX
10    
27.291
20  
7.721
0
VERTEX
10    
27.276
20  
7.719
0
VERTEX
10    
27.266
20  
7.719
0
VERTEX
10    
27.253
20  
7.729
0
VERTEX
10    
27.242
20  
7.729
0
VERTEX
10    
27.23
20  
7.729
0
VERTEX
10    
27.221
20  
7.73
0
VERTEX
10    
27.221
20  
7.745
0
VERTEX
10    
27.221
20  
7.763
0
VERTEX
10    
27.221
20  
7.778
0
VERTEX
10    
27.221
20  
7.79
0
VERTEX
10    
27.221
20  
7.799
0
VERTEX
10    
27.219
20  
7.839
0
VERTEX
10    
27.219
20  
7.874
0
VERTEX
10    
27.219
20  
7.895
0
VERTEX
10    
27.219
20  
7.916
0
VERTEX
10    
27.219
20  
7.929
0
VERTEX
10    
27.219
20  
7.948
0
VERTEX
10    
27.219
20  
7.964
0
VERTEX
10    
27.219
20  
7.978
0
VERTEX
10    
27.219
20  
7.989
0
VERTEX
10    
27.216
20  
8.001
0
VERTEX
10    
27.227
20  
8.013
0
VERTEX
10    
27.238
20  
8.013
0
VERTEX
10    
27.275
20  
8.013
0
VERTEX
10    
27.319
20  
8.013
0
VERTEX
10    
27.376
20  
8.013
0
VERTEX
10    
27.444
20  
8.013
0
VERTEX
10    
27.498
20  
8.013
0
VERTEX
10    
27.532
20  
8.013
0
VERTEX
10    
27.547
20  
8.013
0
VERTEX
10    
27.566
20  
8.013
0
VERTEX
10    
27.578
20  
8.015
0
VERTEX
10    
27.587
20  
8.015
0
VERTEX
10    
27.594
20  
8.014
0
VERTEX
10    
27.607
20  
8.014
0
VERTEX
10    
27.618
20  
8.014
0
VERTEX
10    
27.627
20  
8.01
0
VERTEX
10    
27.638
20  
8.01
0
VERTEX
10    
27.671
20  
8.022
0     
SEQEND
0 
POLYLINE
8     
PlasmaCutterPath
70  
0  
6 
Continuous
40    
0.1
41 
0.1   
43
0.1
0
VERTEX
10    
28.662
20  
7.776
0
VERTEX
10    
28.673
20  
7.76
0
VERTEX
10    
28.671
20  
7.739
0
VERTEX
10    
28.671
20  
7.728
0
VERTEX
10    
28.686
20  
7.728
0
VERTEX
10    
28.686
20  
7.75
0
VERTEX
10    
28.7
20  
7.766
0
VERTEX
10    
28.711
20  
7.786
0
VERTEX
10    
28.711
20  
7.8
0
VERTEX
10    
28.711
20  
7.818
0
VERTEX
10    
28.711
20  
7.83
0     
SEQEND
0 
POLYLINE
8     
PlasmaCutterPath
70  
0  
6 
Continuous
40    
0.1
41 
0.1   
43
0.1
0
VERTEX
10    
28.674
20  
7.98
0
VERTEX
10    
28.687
20  
7.98
0
VERTEX
10    
28.698
20  
7.98
0
VERTEX
10    
28.711
20  
7.98
0
VERTEX
10    
28.721
20  
7.985
0
VERTEX
10    
28.74
20  
7.985
0
VERTEX
10    
28.757
20  
7.985
0
VERTEX
10    
28.768
20  
7.985
0
VERTEX
10    
28.779
20  
7.985
0
VERTEX
10    
28.791
20  
7.985
0
VERTEX
10    
28.809
20  
7.985
0
VERTEX
10    
28.809
20  
7.993
0
VERTEX
10    
28.82
20  
7.993
0
VERTEX
10    
28.834
20  
7.993
0
VERTEX
10    
28.847
20  
7.993
0
VERTEX
10    
28.86
20  
7.993
0
VERTEX
10    
28.872
20  
7.993
0
VERTEX
10    
28.889
20  
7.993
0
VERTEX
10    
28.908
20  
7.993
0
VERTEX
10    
28.918
20  
7.993
0
VERTEX
10    
28.929
20  
7.993
0
VERTEX
10    
28.943
20  
7.993
0
VERTEX
10    
28.959
20  
7.989
0
VERTEX
10    
28.975
20  
7.989
0
VERTEX
10    
28.984
20  
7.989
0
VERTEX
10    
29.003
20  
7.989
0
VERTEX
10    
29.012
20  
7.989
0
VERTEX
10    
29.024
20  
7.986
0
VERTEX
10    
29.035
20  
7.986
0
VERTEX
10    
29.046
20  
7.98
0
VERTEX
10    
29.046
20  
7.965
0
VERTEX
10    
29.046
20  
7.952
0
VERTEX
10    
29.046
20  
7.935
0
VERTEX
10    
29.046
20  
7.919
0
VERTEX
10    
29.054
20  
7.919
0
VERTEX
10    
29.054
20  
7.896
0
VERTEX
10    
29.054
20  
7.884
0
VERTEX
10    
29.054
20  
7.871
0
VERTEX
10    
29.054
20  
7.854
0
VERTEX
10    
29.054
20  
7.846
0
VERTEX
10    
29.054
20  
7.825
0
VERTEX
10    
29.054
20  
7.811
0
VERTEX
10    
29.054
20  
7.792
0
VERTEX
10    
29.054
20  
7.77
0
VERTEX
10    
29.054
20  
7.76
0
VERTEX
10    
29.054
20  
7.749
0
VERTEX
10    
29.054
20  
7.739
0
VERTEX
10    
29.054
20  
7.721
0
VERTEX
10    
29.046
20  
7.707
0
VERTEX
10    
29.046
20  
7.689
0
VERTEX
10    
29.046
20  
7.671
0
VERTEX
10    
29.046
20  
7.659
0
VERTEX
10    
29.035
20  
7.659
0
VERTEX
10    
29.022
20  
7.659
0
VERTEX
10    
29.009
20  
7.659
0
VERTEX
10    
28.987
20  
7.659
0
VERTEX
10    
28.975
20  
7.659
0
VERTEX
10    
28.958
20  
7.659
0
VERTEX
10    
28.941
20  
7.663
0
VERTEX
10    
28.933
20  
7.672
0
VERTEX
10    
28.923
20  
7.671
0
VERTEX
10    
28.91
20  
7.671
0
VERTEX
10    
28.897
20  
7.671
0
VERTEX
10    
28.879
20  
7.671
0
VERTEX
10    
28.869
20  
7.671
0
VERTEX
10    
28.859
20  
7.671
0
VERTEX
10    
28.835
20  
7.671
0
VERTEX
10    
28.821
20  
7.671
0
VERTEX
10    
28.811
20  
7.671
0
VERTEX
10    
28.797
20  
7.671
0
VERTEX
10    
28.782
20  
7.671
0
VERTEX
10    
28.772
20  
7.668
0
VERTEX
10    
28.753
20  
7.668
0
VERTEX
10    
28.743
20  
7.668
0
VERTEX
10    
28.727
20  
7.668
0
VERTEX
10    
28.709
20  
7.668
0
VERTEX
10    
28.697
20  
7.668
0
VERTEX
10    
28.687
20  
7.676
0
VERTEX
10    
28.674
20  
7.676
0
VERTEX
10    
28.663
20  
7.676
0
VERTEX
10    
28.663
20  
7.664
0
VERTEX
10    
28.652
20  
7.652
0
VERTEX
10    
28.652
20  
7.641
0
VERTEX
10    
28.64
20  
7.641
0
VERTEX
10    
28.64
20  
7.624
0
VERTEX
10    
28.64
20  
7.61
0
VERTEX
10    
28.64
20  
7.599
0
VERTEX
10    
28.64
20  
7.584
0
VERTEX
10    
28.631
20  
7.572
0
VERTEX
10    
28.631
20  
7.555
0
VERTEX
10    
28.631
20  
7.541
0
VERTEX
10    
28.631
20  
7.524
0
VERTEX
10    
28.621
20  
7.507
0
VERTEX
10    
28.621
20  
7.489
0
VERTEX
10    
28.621
20  
7.47
0
VERTEX
10    
28.621
20  
7.462
0
VERTEX
10    
28.621
20  
7.447
0
VERTEX
10    
28.607
20  
7.429
0
VERTEX
10    
28.607
20  
7.409
0
VERTEX
10    
28.607
20  
7.399
0
VERTEX
10    
28.607
20  
7.383
0
VERTEX
10    
28.607
20  
7.372
0
VERTEX
10    
28.607
20  
7.356
0
VERTEX
10    
28.598
20  
7.356
0
VERTEX
10    
28.598
20  
7.34
0
VERTEX
10    
28.598
20  
7.329
0
VERTEX
10    
28.598
20  
7.316
0
VERTEX
10    
28.598
20  
7.305
0
VERTEX
10    
28.598
20  
7.29
0
VERTEX
10    
28.59
20  
7.278
0
VERTEX
10    
28.59
20  
7.264
0
VERTEX
10    
28.59
20  
7.251
0
VERTEX
10    
28.588
20  
7.239
0
VERTEX
10    
28.602
20  
7.239
0
VERTEX
10    
28.61
20  
7.237
0
VERTEX
10    
28.63
20  
7.232
0
VERTEX
10    
28.642
20  
7.232
0
VERTEX
10    
28.664
20  
7.232
0
VERTEX
10    
28.679
20  
7.232
0
VERTEX
10    
28.696
20  
7.232
0
VERTEX
10    
28.708
20  
7.232
0
VERTEX
10    
28.721
20  
7.237
0
VERTEX
10    
28.724
20  
7.245
0
VERTEX
10    
28.734
20  
7.243
0
VERTEX
10    
28.746
20  
7.243
0
VERTEX
10    
28.761
20  
7.243
0
VERTEX
10    
28.773
20  
7.243
0
VERTEX
10    
28.785
20  
7.243
0
VERTEX
10    
28.796
20  
7.243
0
VERTEX
10    
28.81
20  
7.243
0
VERTEX
10    
28.824
20  
7.241
0
VERTEX
10    
28.836
20  
7.241
0
VERTEX
10    
28.844
20  
7.241
0
VERTEX
10    
28.865
20  
7.241
0
VERTEX
10    
28.873
20  
7.241
0
VERTEX
10    
28.884
20  
7.241
0
VERTEX
10    
28.897
20  
7.241
0
VERTEX
10    
28.909
20  
7.241
0
VERTEX
10    
28.919
20  
7.236
0
VERTEX
10    
28.919
20  
7.224
0
VERTEX
10    
28.907
20  
7.224
0
VERTEX
10    
28.907
20  
7.212
0
VERTEX
10    
28.907
20  
7.196
0
VERTEX
10    
28.907
20  
7.181
0
VERTEX
10    
28.896
20  
7.167
0
VERTEX
10    
28.896
20  
7.153
0
VERTEX
10    
28.896
20  
7.141
0
VERTEX
10    
28.896
20  
7.124
0
VERTEX
10    
28.896
20  
7.11
0
VERTEX
10    
28.885
20  
7.11
0
VERTEX
10    
28.885
20  
7.095
0
VERTEX
10    
28.885
20  
7.076
0
VERTEX
10    
28.885
20  
7.057
0
VERTEX
10    
28.885
20  
7.038
0
VERTEX
10    
28.885
20  
7.025
0
VERTEX
10    
28.885
20  
7.011
0
VERTEX
10    
28.881
20  
6.994
0
VERTEX
10    
28.881
20  
6.987
0
VERTEX
10    
28.881
20  
6.971
0
VERTEX
10    
28.871
20  
6.972
0
VERTEX
10    
28.858
20  
6.972
0
VERTEX
10    
28.845
20  
6.972
0
VERTEX
10    
28.826
20  
6.972
0
VERTEX
10    
28.813
20  
6.972
0
VERTEX
10    
28.797
20  
6.972
0
VERTEX
10    
28.786
20  
6.972
0
VERTEX
10    
28.771
20  
6.972
0
VERTEX
10    
28.757
20  
6.972
0
VERTEX
10    
28.741
20  
6.972
0
VERTEX
10    
28.729
20  
6.972
0
VERTEX
10    
28.729
20  
6.962
0
VERTEX
10    
28.707
20  
6.962
0
VERTEX
10    
28.696
20  
6.962
0
VERTEX
10    
28.681
20  
6.962
0
VERTEX
10    
28.669
20  
6.974
0
VERTEX
10    
28.647
20  
6.974
0
VERTEX
10    
28.634
20  
6.974
0
VERTEX
10    
28.618
20  
6.974
0
VERTEX
10    
28.602
20  
6.984
0
VERTEX
10    
28.601
20  
6.984
0
VERTEX
10    
28.597
20  
6.973
0
VERTEX
10    
28.597
20  
6.96
0
VERTEX
10    
28.597
20  
6.949
0
VERTEX
10    
28.597
20  
6.934
0
VERTEX
10    
28.597
20  
6.917
0
VERTEX
10    
28.587
20  
6.917
0
VERTEX
10    
28.587
20  
6.903
0
VERTEX
10    
28.587
20  
6.89
0
VERTEX
10    
28.575
20  
6.879
0
VERTEX
10    
28.575
20  
6.867
0
VERTEX
10    
28.575
20  
6.856
0
VERTEX
10    
28.561
20  
6.844
0
VERTEX
10    
28.561
20  
6.831
0
VERTEX
10    
28.561
20  
6.818
0
VERTEX
10    
28.561
20  
6.804
0
VERTEX
10    
28.561
20  
6.788
0
VERTEX
10    
28.552
20  
6.788
0
VERTEX
10    
28.552
20  
6.767
0
VERTEX
10    
28.552
20  
6.752
0
VERTEX
10    
28.552
20  
6.737
0
VERTEX
10    
28.552
20  
6.726
0
VERTEX
10    
28.552
20  
6.71
0
VERTEX
10    
28.552
20  
6.698
0
VERTEX
10    
28.546
20  
6.684
0
VERTEX
10    
28.546
20  
6.672
0
VERTEX
10    
28.546
20  
6.654
0
VERTEX
10    
28.546
20  
6.641
0
VERTEX
10    
28.546
20  
6.627
0
VERTEX
10    
28.546
20  
6.609
0
VERTEX
10    
28.537
20  
6.609
0
VERTEX
10    
28.537
20  
6.598
0
VERTEX
10    
28.537
20  
6.587
0
VERTEX
10    
28.537
20  
6.569
0
VERTEX
10    
28.537
20  
6.561
0
VERTEX
10    
28.537
20  
6.538
0
VERTEX
10    
28.537
20  
6.527
0
VERTEX
10    
28.533
20  
6.513
0
VERTEX
10    
28.527
20  
6.505
0
VERTEX
10    
28.528
20  
6.493
0
VERTEX
10    
28.528
20  
6.481
0
VERTEX
10    
28.528
20  
6.467
0
VERTEX
10    
28.543
20  
6.467
0
VERTEX
10    
28.555
20  
6.467
0
VERTEX
10    
28.566
20  
6.467
0
VERTEX
10    
28.577
20  
6.467
0
VERTEX
10    
28.593
20  
6.467
0
VERTEX
10    
28.61
20  
6.464
0
VERTEX
10    
28.627
20  
6.464
0
VERTEX
10    
28.647
20  
6.464
0
VERTEX
10    
28.67
20  
6.464
0
VERTEX
10    
28.696
20  
6.464
0
VERTEX
10    
28.72
20  
6.464
0
VERTEX
10    
28.738
20  
6.464
0
VERTEX
10    
28.756
20  
6.474
0
VERTEX
10    
28.773
20  
6.474
0
VERTEX
10    
28.785
20  
6.474
0
VERTEX
10    
28.798
20  
6.474
0
VERTEX
10    
28.81
20  
6.474
0
VERTEX
10    
28.822
20  
6.474
0
VERTEX
10    
28.834
20  
6.474
0
VERTEX
10    
28.849
20  
6.474
0
VERTEX
10    
28.866
20  
6.474
0
VERTEX
10    
28.878
20  
6.474
0
VERTEX
10    
28.889
20  
6.474
0
VERTEX
10    
28.909
20  
6.474
0
VERTEX
10    
28.936
20  
6.474
0
VERTEX
10    
28.957
20  
6.466
0
VERTEX
10    
28.976
20  
6.466
0
VERTEX
10    
28.994
20  
6.466
0
VERTEX
10    
29.014
20  
6.466
0
VERTEX
10    
29.035
20  
6.466
0
VERTEX
10    
29.053
20  
6.466
0
VERTEX
10    
29.057
20  
6.454
0
VERTEX
10    
29.057
20  
6.442
0
VERTEX
10    
29.057
20  
6.432
0
VERTEX
10    
29.062
20  
6.419
0
VERTEX
10    
29.062
20  
6.406
0
VERTEX
10    
29.062
20  
6.394
0
VERTEX
10    
29.05
20  
6.375
0
VERTEX
10    
29.05
20  
6.355
0
VERTEX
10    
29.05
20  
6.337
0
VERTEX
10    
29.05
20  
6.321
0
VERTEX
10    
29.04
20  
6.321
0
VERTEX
10    
29.04
20  
6.306
0
VERTEX
10    
29.04
20  
6.288
0
VERTEX
10    
29.04
20  
6.274
0
VERTEX
10    
29.04
20  
6.261
0
VERTEX
10    
29.04
20  
6.25
0
VERTEX
10    
29.031
20  
6.25
0
VERTEX
10    
29.031
20  
6.235
0
VERTEX
10    
29.024
20  
6.227
0
VERTEX
10    
29.014
20  
6.228
0
VERTEX
10    
29.003
20  
6.228
0
VERTEX
10    
28.968
20  
6.228
0
VERTEX
10    
28.96
20  
6.228
0
VERTEX
10    
28.96
20  
6.216
0
VERTEX
10    
28.942
20  
6.216
0
VERTEX
10    
28.921
20  
6.216
0
VERTEX
10    
28.902
20  
6.216
0
VERTEX
10    
28.885
20  
6.203
0
VERTEX
10    
28.869
20  
6.203
0
VERTEX
10    
28.853
20  
6.203
0
VERTEX
10    
28.84
20  
6.203
0
VERTEX
10    
28.82
20  
6.203
0
VERTEX
10    
28.786
20  
6.203
0
VERTEX
10    
28.763
20  
6.203
0
VERTEX
10    
28.755
20  
6.203
0
VERTEX
10    
28.746
20  
6.203
0
VERTEX
10    
28.716
20  
6.203
0
VERTEX
10    
28.695
20  
6.203
0
VERTEX
10    
28.68
20  
6.203
0
VERTEX
10    
28.665
20  
6.203
0
VERTEX
10    
28.648
20  
6.203
0
VERTEX
10    
28.626
20  
6.203
0
VERTEX
10    
28.597
20  
6.203
0
VERTEX
10    
28.568
20  
6.207
0
VERTEX
10    
28.548
20  
6.216
0
VERTEX
10    
28.522
20  
6.215
0
VERTEX
10    
28.501
20  
6.215
0
VERTEX
10    
28.48
20  
6.215
0
VERTEX
10    
28.465
20  
6.219
0
VERTEX
10    
28.45
20  
6.227
0
VERTEX
10    
28.442
20  
6.226
0
VERTEX
10    
28.428
20  
6.226
0
VERTEX
10    
28.412
20  
6.226
0
VERTEX
10    
28.397
20  
6.226
0
VERTEX
10    
28.387
20  
6.226
0
VERTEX
10    
28.374
20  
6.226
0
VERTEX
10    
28.374
20  
6.234
0
VERTEX
10    
28.363
20  
6.234
0
VERTEX
10    
28.352
20  
6.234
0
VERTEX
10    
28.335
20  
6.234
0
VERTEX
10    
28.322
20  
6.235
0
VERTEX
10    
28.319
20  
6.238
0
VERTEX
10    
28.308
20  
6.25
0
VERTEX
10    
28.308
20  
6.261
0
VERTEX
10    
28.308
20  
6.261
0
VERTEX
10    
28.308
20  
6.28
0
VERTEX
10    
28.298
20  
6.28
0
VERTEX
10    
28.298
20  
6.291
0
VERTEX
10    
28.298
20  
6.304
0
VERTEX
10    
28.298
20  
6.319
0
VERTEX
10    
28.298
20  
6.328
0
VERTEX
10    
28.298
20  
6.35
0
VERTEX
10    
28.302
20  
6.36
0
VERTEX
10    
28.312
20  
6.372
0
VERTEX
10    
28.31
20  
6.383
0
VERTEX
10    
28.31
20  
6.399
0
VERTEX
10    
28.324
20  
6.418
0
VERTEX
10    
28.324
20  
6.432
0
VERTEX
10    
28.324
20  
6.452
0
VERTEX
10    
28.334
20  
6.475
0
VERTEX
10    
28.334
20  
6.49
0
VERTEX
10    
28.334
20  
6.505
0
VERTEX
10    
28.334
20  
6.517
0
VERTEX
10    
28.334
20  
6.535
0
VERTEX
10    
28.334
20  
6.545
0
VERTEX
10    
28.334
20  
6.558
0
VERTEX
10    
28.334
20  
6.571
0
VERTEX
10    
28.334
20  
6.582
0
VERTEX
10    
28.334
20  
6.595
0
VERTEX
10    
28.339
20  
6.612
0
VERTEX
10    
28.339
20  
6.62
0
VERTEX
10    
28.339
20  
6.636
0
VERTEX
10    
28.339
20  
6.657
0
VERTEX
10    
28.339
20  
6.67
0
VERTEX
10    
28.339
20  
6.681
0
VERTEX
10    
28.339
20  
6.689
0
VERTEX
10    
28.339
20  
6.711
0
VERTEX
10    
28.339
20  
6.724
0
VERTEX
10    
28.335
20  
6.737
0
VERTEX
10    
28.327
20  
6.743
0
VERTEX
10    
28.328
20  
6.76
0
VERTEX
10    
28.328
20  
6.773
0
VERTEX
10    
28.328
20  
6.781
0
VERTEX
10    
28.328
20  
6.801
0
VERTEX
10    
28.328
20  
6.819
0
VERTEX
10    
28.328
20  
6.835
0
VERTEX
10    
28.328
20  
6.853
0
VERTEX
10    
28.328
20  
6.87
0
VERTEX
10    
28.328
20  
6.889
0
VERTEX
10    
28.328
20  
6.907
0
VERTEX
10    
28.318
20  
6.922
0
VERTEX
10    
28.318
20  
6.947
0
VERTEX
10    
28.318
20  
6.984
0
VERTEX
10    
28.318
20  
7.024
0
VERTEX
10    
28.318
20  
7.052
0
VERTEX
10    
28.318
20  
7.084
0
VERTEX
10    
28.318
20  
7.111
0
VERTEX
10    
28.318
20  
7.142
0
VERTEX
10    
28.318
20  
7.166
0
VERTEX
10    
28.318
20  
7.188
0
VERTEX
10    
28.318
20  
7.206
0
VERTEX
10    
28.318
20  
7.226
0
VERTEX
10    
28.318
20  
7.254
0
VERTEX
10    
28.318
20  
7.281
0
VERTEX
10    
28.33
20  
7.308
0
VERTEX
10    
28.33
20  
7.337
0
VERTEX
10    
28.33
20  
7.37
0
VERTEX
10    
28.342
20  
7.41
0
VERTEX
10    
28.342
20  
7.445
0
VERTEX
10    
28.342
20  
7.485
0
VERTEX
10    
28.342
20  
7.515
0
VERTEX
10    
28.342
20  
7.533
0
VERTEX
10    
28.342
20  
7.551
0
VERTEX
10    
28.352
20  
7.569
0
VERTEX
10    
28.352
20  
7.589
0
VERTEX
10    
28.352
20  
7.605
0
VERTEX
10    
28.352
20  
7.619
0
VERTEX
10    
28.362
20  
7.636
0
VERTEX
10    
28.362
20  
7.649
0
VERTEX
10    
28.362
20  
7.667
0
VERTEX
10    
28.362
20  
7.686
0
VERTEX
10    
28.362
20  
7.706
0
VERTEX
10    
28.362
20  
7.718
0
VERTEX
10    
28.362
20  
7.733
0
VERTEX
10    
28.362
20  
7.749
0
VERTEX
10    
28.362
20  
7.761
0
VERTEX
10    
28.362
20  
7.774
0
VERTEX
10    
28.362
20  
7.803
0
VERTEX
10    
28.362
20  
7.827
0
VERTEX
10    
28.362
20  
7.851
0
VERTEX
10    
28.362
20  
7.859
0
VERTEX
10    
28.362
20  
7.874
0
VERTEX
10    
28.362
20  
7.887
0
VERTEX
10    
28.362
20  
7.903
0
VERTEX
10    
28.362
20  
7.911
0
VERTEX
10    
28.362
20  
7.929
0
VERTEX
10    
28.362
20  
7.942
0
VERTEX
10    
28.362
20  
7.955
0
VERTEX
10    
28.362
20  
7.968
0
VERTEX
10    
28.353
20  
7.968
0
VERTEX
10    
28.353
20  
7.979
0
VERTEX
10    
28.353
20  
7.988
0
VERTEX
10    
28.361
20  
7.993
0
VERTEX
10    
28.382
20  
8.001
0
VERTEX
10    
28.406
20  
8
0
VERTEX
10    
28.422
20  
8
0
VERTEX
10    
28.433
20  
8
0
VERTEX
10    
28.444
20  
8
0
VERTEX
10    
28.46
20  
8
0
VERTEX
10    
28.478
20  
8
0
VERTEX
10    
28.499
20  
8
0
VERTEX
10    
28.526
20  
8
0
VERTEX
10    
28.552
20  
8
0
VERTEX
10    
28.577
20  
8
0
VERTEX
10    
28.602
20  
8
0
VERTEX
10    
28.614
20  
8
0
VERTEX
10    
28.631
20  
8
0
VERTEX
10    
28.643
20  
8
0
VERTEX
10    
28.656
20  
8
0
VERTEX
10    
28.67
20  
7.994
0
VERTEX
10    
28.686
20  
7.994
0
VERTEX
10    
28.7
20  
7.994
0
VERTEX
10    
28.71
20  
7.988
0
VERTEX
10    
28.706
20  
7.983
0
VERTEX
10    
28.69
20  
7.969
0
VERTEX
10    
28.678
20  
7.978
0
VERTEX
10    
28.68
20  
7.995
0
VERTEX
10    
28.68
20  
8.016
0
VERTEX
10    
28.68
20  
8.036
0
VERTEX
10    
28.68
20  
8.053
0     
SEQEND
0 
POLYLINE
8     
PlasmaCutterPath
70  
0  
6 
Continuous
40    
0.1
41 
0.1   
43
0.1
0
VERTEX
10    
15.147
20  
4.129
0
VERTEX
10    
15.149
20  
4.126
0
VERTEX
10    
15.161
20  
4.125
0
VERTEX
10    
15.177
20  
4.125
0
VERTEX
10    
15.184
20  
4.125
0
VERTEX
10    
15.203
20  
4.125
0
VERTEX
10    
15.213
20  
4.127
0
VERTEX
10    
15.226
20  
4.131
0
VERTEX
10    
15.235
20  
4.131
0
VERTEX
10    
15.244
20  
4.131
0
VERTEX
10    
15.254
20  
4.131
0
VERTEX
10    
15.268
20  
4.125
0
VERTEX
10    
15.285
20  
4.125
0
VERTEX
10    
15.304
20  
4.125
0
VERTEX
10    
15.323
20  
4.125
0
VERTEX
10    
15.346
20  
4.125
0
VERTEX
10    
15.432
20  
4.136
0
VERTEX
10    
15.487
20  
4.135
0
VERTEX
10    
15.526
20  
4.135
0
VERTEX
10    
15.564
20  
4.135
0
VERTEX
10    
15.606
20  
4.14
0
VERTEX
10    
15.641
20  
4.151
0
VERTEX
10    
15.667
20  
4.149
0
VERTEX
10    
15.696
20  
4.149
0
VERTEX
10    
15.73
20  
4.149
0
VERTEX
10    
15.766
20  
4.149
0
VERTEX
10    
15.792
20  
4.149
0
VERTEX
10    
15.813
20  
4.149
0
VERTEX
10    
15.83
20  
4.145
0
VERTEX
10    
15.846
20  
4.137
0
VERTEX
10    
15.862
20  
4.138
0
VERTEX
10    
15.877
20  
4.133
0
VERTEX
10    
15.891
20  
4.123
0
VERTEX
10    
15.905
20  
4.125
0
VERTEX
10    
15.918
20  
4.125
0
VERTEX
10    
15.931
20  
4.125
0
VERTEX
10    
15.939
20  
4.125
0
VERTEX
10    
15.939
20  
4.114
0
VERTEX
10    
15.952
20  
4.114
0
VERTEX
10    
15.962
20  
4.114
0
VERTEX
10    
15.973
20  
4.114
0
VERTEX
10    
15.987
20  
4.109
0
VERTEX
10    
16.002
20  
4.109
0
VERTEX
10    
16.002
20  
4.098
0
VERTEX
10    
16.024
20  
4.098
0
VERTEX
10    
16.043
20  
4.084
0
VERTEX
10    
16.055
20  
4.084
0
VERTEX
10    
16.068
20  
4.084
0
VERTEX
10    
16.082
20  
4.071
0
VERTEX
10    
16.097
20  
4.071
0
VERTEX
10    
16.112
20  
4.071
0
VERTEX
10    
16.123
20  
4.071
0
VERTEX
10    
16.123
20  
4.06
0
VERTEX
10    
16.141
20  
4.06
0
VERTEX
10    
16.152
20  
4.06
0
VERTEX
10    
16.166
20  
4.06
0
VERTEX
10    
16.181
20  
4.06
0
VERTEX
10    
16.192
20  
4.06
0
VERTEX
10    
16.197
20  
4.06
0
VERTEX
10    
16.202
20  
4.074
0
VERTEX
10    
16.182
20  
4.087
0
VERTEX
10    
16.167
20  
4.094
0
VERTEX
10    
16.156
20  
4.092
0
VERTEX
10    
16.142
20  
4.092
0
VERTEX
10    
16.127
20  
4.103
0
VERTEX
10    
16.109
20  
4.103
0
VERTEX
10    
16.086
20  
4.113
0
VERTEX
10    
16.069
20  
4.113
0
VERTEX
10    
16.069
20  
4.125
0
VERTEX
10    
16.058
20  
4.125
0
VERTEX
10    
16.044
20  
4.125
0
VERTEX
10    
16.044
20  
4.115
0
VERTEX
10    
16.033
20  
4.115
0
VERTEX
10    
16.033
20  
4.138
0
VERTEX
10    
16.033
20  
4.166
0
VERTEX
10    
16.033
20  
4.181
0     
SEQEND
0 
POLYLINE
8     
PlasmaCutterPath
70  
0  
6 
Continuous
40    
0.1
41 
0.1   
43
0.1
0
VERTEX
10    
15.176
20  
4.105
0
VERTEX
10    
15.185
20  
4.109
0
VERTEX
10    
15.193
20  
4.109
0
VERTEX
10    
15.207
20  
4.109
0
VERTEX
10    
15.218
20  
4.109
0
VERTEX
10    
15.235
20  
4.109
0
VERTEX
10    
15.235
20  
4.099
0
VERTEX
10    
15.248
20  
4.099
0
VERTEX
10    
15.261
20  
4.099
0
VERTEX
10    
15.274
20  
4.099
0
VERTEX
10    
15.288
20  
4.099
0
VERTEX
10    
15.301
20  
4.099
0
VERTEX
10    
15.301
20  
4.09
0
VERTEX
10    
15.312
20  
4.09
0
VERTEX
10    
15.323
20  
4.09
0
VERTEX
10    
15.342
20  
4.09
0
VERTEX
10    
15.36
20  
4.09
0
VERTEX
10    
15.371
20  
4.09
0
VERTEX
10    
15.384
20  
4.093
0
VERTEX
10    
15.4
20  
4.093
0
VERTEX
10    
15.412
20  
4.093
0
VERTEX
10    
15.429
20  
4.093
0
VERTEX
10    
15.445
20  
4.093
0
VERTEX
10    
15.458
20  
4.104
0
VERTEX
10    
15.473
20  
4.104
0
VERTEX
10    
15.485
20  
4.104
0
VERTEX
10    
15.499
20  
4.122
0
VERTEX
10    
15.536
20  
4.149
0
VERTEX
10    
15.576
20  
4.172
0
VERTEX
10    
15.612
20  
4.176
0
VERTEX
10    
15.624
20  
4.184
0
VERTEX
10    
15.638
20  
4.177
0
VERTEX
10    
15.654
20  
4.166
0
VERTEX
10    
15.672
20  
4.163
0
VERTEX
10    
15.68
20  
4.152
0
VERTEX
10    
15.694
20  
4.154
0
VERTEX
10    
15.694
20  
4.141
0
VERTEX
10    
15.71
20  
4.141
0
VERTEX
10    
15.71
20  
4.131
0
VERTEX
10    
15.731
20  
4.131
0
VERTEX
10    
15.742
20  
4.131
0
VERTEX
10    
15.754
20  
4.131
0
VERTEX
10    
15.766
20  
4.131
0
VERTEX
10    
15.766
20  
4.121
0
VERTEX
10    
15.777
20  
4.121
0
VERTEX
10    
15.789
20  
4.121
0
VERTEX
10    
15.801
20  
4.121
0
VERTEX
10    
15.821
20  
4.121
0
VERTEX
10    
15.831
20  
4.121
0
VERTEX
10    
15.862
20  
4.121
0
VERTEX
10    
15.887
20  
4.121
0
VERTEX
10    
15.908
20  
4.121
0
VERTEX
10    
15.924
20  
4.121
0
VERTEX
10    
15.944
20  
4.121
0
VERTEX
10    
15.968
20  
4.121
0
VERTEX
10    
15.985
20  
4.121
0
VERTEX
10    
15.996
20  
4.121
0
VERTEX
10    
16.006
20  
4.121
0
VERTEX
10    
16.018
20  
4.121
0
VERTEX
10    
16.03
20  
4.121
0
VERTEX
10    
16.049
20  
4.121
0
VERTEX
10    
16.071
20  
4.121
0
VERTEX
10    
16.114
20  
4.121
0
VERTEX
10    
16.18
20  
4.121
0
VERTEX
10    
16.243
20  
4.121
0
VERTEX
10    
16.274
20  
4.121
0
VERTEX
10    
16.315
20  
4.121
0
VERTEX
10    
16.353
20  
4.121
0
VERTEX
10    
16.386
20  
4.121
0
VERTEX
10    
16.416
20  
4.121
0
VERTEX
10    
16.453
20  
4.121
0
VERTEX
10    
16.489
20  
4.121
0
VERTEX
10    
16.53
20  
4.121
0
VERTEX
10    
16.569
20  
4.121
0
VERTEX
10    
16.598
20  
4.121
0
VERTEX
10    
16.629
20  
4.121
0
VERTEX
10    
16.662
20  
4.121
0
VERTEX
10    
16.69
20  
4.121
0
VERTEX
10    
16.711
20  
4.119
0
VERTEX
10    
16.728
20  
4.114
0
VERTEX
10    
16.742
20  
4.115
0
VERTEX
10    
16.755
20  
4.115
0
VERTEX
10    
16.768
20  
4.115
0
VERTEX
10    
16.779
20  
4.115
0
VERTEX
10    
16.791
20  
4.115
0
VERTEX
10    
16.805
20  
4.115
0
VERTEX
10    
16.819
20  
4.115
0
VERTEX
10    
16.832
20  
4.115
0
VERTEX
10    
16.853
20  
4.115
0
VERTEX
10    
16.889
20  
4.115
0
VERTEX
10    
16.932
20  
4.114
0
VERTEX
10    
17.004
20  
4.113
0
VERTEX
10    
17.064
20  
4.113
0
VERTEX
10    
17.11
20  
4.113
0
VERTEX
10    
17.164
20  
4.113
0
VERTEX
10    
17.216
20  
4.113
0
VERTEX
10    
17.265
20  
4.113
0
VERTEX
10    
17.321
20  
4.113
0
VERTEX
10    
17.393
20  
4.109
0
VERTEX
10    
17.452
20  
4.102
0
VERTEX
10    
17.503
20  
4.103
0
VERTEX
10    
17.553
20  
4.103
0
VERTEX
10    
17.587
20  
4.103
0
VERTEX
10    
17.615
20  
4.103
0
VERTEX
10    
17.645
20  
4.103
0
VERTEX
10    
17.686
20  
4.103
0
VERTEX
10    
17.74
20  
4.103
0
VERTEX
10    
17.816
20  
4.103
0
VERTEX
10    
17.88
20  
4.101
0
VERTEX
10    
17.938
20  
4.096
0
VERTEX
10    
18.001
20  
4.097
0
VERTEX
10    
18.071
20  
4.097
0
VERTEX
10    
18.173
20  
4.097
0
VERTEX
10    
18.272
20  
4.097
0
VERTEX
10    
18.341
20  
4.097
0
VERTEX
10    
18.406
20  
4.097
0
VERTEX
10    
18.484
20  
4.092
0
VERTEX
10    
18.594
20  
4.083
0
VERTEX
10    
18.693
20  
4.085
0
VERTEX
10    
18.751
20  
4.085
0
VERTEX
10    
18.815
20  
4.085
0
VERTEX
10    
18.889
20  
4.085
0
VERTEX
10    
18.991
20  
4.085
0
VERTEX
10    
19.093
20  
4.08
0
VERTEX
10    
19.153
20  
4.071
0
VERTEX
10    
19.214
20  
4.072
0
VERTEX
10    
19.283
20  
4.072
0
VERTEX
10    
19.384
20  
4.072
0
VERTEX
10    
19.502
20  
4.072
0
VERTEX
10    
19.573
20  
4.072
0
VERTEX
10    
19.635
20  
4.068
0
VERTEX
10    
19.698
20  
4.06
0
VERTEX
10    
19.804
20  
4.061
0
VERTEX
10    
19.931
20  
4.061
0
VERTEX
10    
19.987
20  
4.061
0
VERTEX
10    
20.039
20  
4.061
0
VERTEX
10    
20.092
20  
4.061
0
VERTEX
10    
20.156
20  
4.057
0
VERTEX
10    
20.23
20  
4.049
0
VERTEX
10    
20.297
20  
4.051
0
VERTEX
10    
20.349
20  
4.051
0
VERTEX
10    
20.404
20  
4.051
0
VERTEX
10    
20.461
20  
4.051
0
VERTEX
10    
20.513
20  
4.051
0
VERTEX
10    
20.597
20  
4.051
0
VERTEX
10    
20.698
20  
4.051
0
VERTEX
10    
20.786
20  
4.051
0
VERTEX
10    
20.879
20  
4.046
0
VERTEX
10    
20.991
20  
4.038
0
VERTEX
10    
21.122
20  
4.04
0
VERTEX
10    
21.213
20  
4.04
0
VERTEX
10    
21.33
20  
4.04
0
VERTEX
10    
21.468
20  
4.035
0
VERTEX
10    
21.582
20  
4.026
0
VERTEX
10    
21.664
20  
4.028
0
VERTEX
10    
21.756
20  
4.028
0
VERTEX
10    
21.851
20  
4.028
0
VERTEX
10    
21.913
20  
4.024
0
VERTEX
10    
21.963
20  
4.016
0
VERTEX
10    
21.998
20  
4.017
0
VERTEX
10    
22.034
20  
4.017
0
VERTEX
10    
22.069
20  
4.017
0
VERTEX
10    
22.117
20  
4.017
0
VERTEX
10    
22.192
20  
4.017
0
VERTEX
10    
22.282
20  
4.017
0
VERTEX
10    
22.354
20  
4.017
0
VERTEX
10    
22.431
20  
4.017
0
VERTEX
10    
22.518
20  
4.017
0
VERTEX
10    
22.635
20  
4.017
0
VERTEX
10    
22.75
20  
4.017
0
VERTEX
10    
22.838
20  
4.013
0
VERTEX
10    
22.963
20  
4.003
0
VERTEX
10    
23.104
20  
4.004
0
VERTEX
10    
23.192
20  
4.004
0
VERTEX
10    
23.301
20  
4.004
0
VERTEX
10    
23.449
20  
3.992
0
VERTEX
10    
23.506
20  
3.994
0
VERTEX
10    
23.571
20  
3.994
0
VERTEX
10    
23.644
20  
3.994
0
VERTEX
10    
23.762
20  
3.994
0
VERTEX
10    
23.902
20  
3.994
0
VERTEX
10    
23.989
20  
3.994
0
VERTEX
10    
24.076
20  
3.994
0
VERTEX
10    
24.194
20  
3.994
0
VERTEX
10    
24.348
20  
3.994
0
VERTEX
10    
24.436
20  
3.989
0
VERTEX
10    
24.547
20  
3.979
0
VERTEX
10    
24.666
20  
3.981
0
VERTEX
10    
24.74
20  
3.981
0
VERTEX
10    
24.797
20  
3.981
0
VERTEX
10    
24.846
20  
3.981
0
VERTEX
10    
24.91
20  
3.981
0
VERTEX
10    
24.973
20  
3.981
0
VERTEX
10    
25.042
20  
3.981
0
VERTEX
10    
25.102
20  
3.981
0
VERTEX
10    
25.16
20  
3.978
0
VERTEX
10    
25.224
20  
3.971
0
VERTEX
10    
25.309
20  
3.972
0
VERTEX
10    
25.413
20  
3.972
0
VERTEX
10    
25.507
20  
3.972
0
VERTEX
10    
25.561
20  
3.972
0
VERTEX
10    
25.615
20  
3.972
0
VERTEX
10    
25.671
20  
3.968
0
VERTEX
10    
25.765
20  
3.96
0
VERTEX
10    
25.87
20  
3.961
0
VERTEX
10    
25.931
20  
3.961
0
VERTEX
10    
25.994
20  
3.961
0
VERTEX
10    
26.043
20  
3.961
0
VERTEX
10    
26.119
20  
3.961
0
VERTEX
10    
26.226
20  
3.961
0
VERTEX
10    
26.329
20  
3.961
0
VERTEX
10    
26.398
20  
3.956
0
VERTEX
10    
26.459
20  
3.947
0
VERTEX
10    
26.509
20  
3.949
0
VERTEX
10    
26.556
20  
3.949
0
VERTEX
10    
26.622
20  
3.949
0
VERTEX
10    
26.693
20  
3.949
0
VERTEX
10    
26.739
20  
3.949
0
VERTEX
10    
26.787
20  
3.949
0
VERTEX
10    
26.834
20  
3.949
0
VERTEX
10    
26.876
20  
3.944
0
VERTEX
10    
26.944
20  
3.935
0
VERTEX
10    
27.023
20  
3.936
0
VERTEX
10    
27.071
20  
3.936
0
VERTEX
10    
27.095
20  
3.936
0
VERTEX
10    
27.13
20  
3.936
0
VERTEX
10    
27.168
20  
3.936
0
VERTEX
10    
27.205
20  
3.936
0
VERTEX
10    
27.23
20  
3.936
0
VERTEX
10    
27.27
20  
3.936
0
VERTEX
10    
27.329
20  
3.933
0
VERTEX
10    
27.388
20  
3.927
0
VERTEX
10    
27.424
20  
3.928
0
VERTEX
10    
27.466
20  
3.928
0
VERTEX
10    
27.524
20  
3.928
0
VERTEX
10    
27.569
20  
3.928
0
VERTEX
10    
27.594
20  
3.928
0
VERTEX
10    
27.621
20  
3.924
0
VERTEX
10    
27.662
20  
3.916
0
VERTEX
10    
27.708
20  
3.918
0
VERTEX
10    
27.745
20  
3.918
0
VERTEX
10    
27.767
20  
3.918
0
VERTEX
10    
27.785
20  
3.918
0
VERTEX
10    
27.804
20  
3.918
0
VERTEX
10    
27.832
20  
3.918
0
VERTEX
10    
27.863
20  
3.918
0
VERTEX
10    
27.895
20  
3.918
0
VERTEX
10    
27.918
20  
3.917
0
VERTEX
10    
27.926
20  
3.916
0
VERTEX
10    
27.944
20  
3.916
0
VERTEX
10    
27.957
20  
3.916
0
VERTEX
10    
27.97
20  
3.916
0
VERTEX
10    
27.984
20  
3.916
0
VERTEX
10    
28
20  
3.916
0
VERTEX
10    
28.01
20  
3.916
0
VERTEX
10    
28.038
20  
3.916
0
VERTEX
10    
28.06
20  
3.916
0
VERTEX
10    
28.079
20  
3.916
0
VERTEX
10    
28.094
20  
3.916
0
VERTEX
10    
28.108
20  
3.916
0
VERTEX
10    
28.124
20  
3.915
0
VERTEX
10    
28.144
20  
3.913
0
VERTEX
10    
28.16
20  
3.913
0
VERTEX
10    
28.168
20  
3.913
0
VERTEX
10    
28.177
20  
3.913
0
VERTEX
10    
28.187
20  
3.913
0
VERTEX
10    
28.176
20  
3.916
0
VERTEX
10    
28.165
20  
3.916
0
VERTEX
10    
28.147
20  
3.916
0
VERTEX
10    
28.116
20  
3.931
0
VERTEX
10    
28.095
20  
3.931
0
VERTEX
10    
28.085
20  
3.931
0
VERTEX
10    
28.073
20  
3.944
0
VERTEX
10    
28.063
20  
3.944
0
VERTEX
10    
28.052
20  
3.944
0
VERTEX
10    
28.04
20  
3.957
0
VERTEX
10    
28.024
20  
3.957
0
VERTEX
10    
28.011
20  
3.967
0
VERTEX
10    
27.992
20  
3.972
0
VERTEX
10    
27.976
20  
3.982
0
VERTEX
10    
27.967
20  
3.985
0
VERTEX
10    
27.96
20  
3.993
0
VERTEX
10    
27.943
20  
3.992
0
VERTEX
10    
27.935
20  
4.005
0
VERTEX
10    
27.92
20  
4.005
0
VERTEX
10    
27.92
20  
4.017
0
VERTEX
10    
27.909
20  
4.017
0
VERTEX
10    
27.896
20  
4.031
0
VERTEX
10    
27.885
20  
4.031
0
VERTEX
10    
27.885
20  
4.046
0
VERTEX
10    
27.873
20  
4.046
0
VERTEX
10    
27.873
20  
4.059
0
VERTEX
10    
27.854
20  
4.059
0
VERTEX
10    
27.854
20  
4.071
0
VERTEX
10    
27.837
20  
4.071
0
VERTEX
10    
27.837
20  
4.098
0
VERTEX
10    
27.766
20  
4.114
0
VERTEX
10    
27.748
20  
4.127
0
VERTEX
10    
27.729
20  
4.139
0
VERTEX
10    
27.719
20  
4.146
0
VERTEX
10    
27.702
20  
4.162
0
VERTEX
10    
27.688
20  
4.173
0
VERTEX
10    
27.676
20  
4.192
0
VERTEX
10    
27.649
20  
4.214
0
VERTEX
10    
27.632
20  
4.234
0
VERTEX
10    
27.611
20  
4.257
0
VERTEX
10    
27.582
20  
4.283
0
VERTEX
10    
27.571
20  
4.294
0
VERTEX
10    
27.558
20  
4.302
0
VERTEX
10    
27.55
20  
4.306
0
VERTEX
10    
27.548
20  
4.317
0
VERTEX
10    
27.539
20  
4.315
0
VERTEX
10    
27.541
20  
4.328
0
VERTEX
10    
27.522
20  
4.328
0
VERTEX
10    
27.522
20  
4.341
0
VERTEX
10    
27.509
20  
4.341
0
VERTEX
10    
27.509
20  
4.351
0
VERTEX
10    
27.488
20  
4.351
0
VERTEX
10    
27.454
20  
4.376
0
VERTEX
10    
27.415
20  
4.376
0
VERTEX
10    
27.393
20  
4.387
0
VERTEX
10    
27.384
20  
4.386
0
VERTEX
10    
27.369
20  
4.399
0
VERTEX
10    
27.356
20  
4.399
0
VERTEX
10    
27.346
20  
4.399
0
VERTEX
10    
27.346
20  
4.41
0
VERTEX
10    
27.331
20  
4.41
0
VERTEX
10    
27.314
20  
4.426
0
VERTEX
10    
27.284
20  
4.441
0
VERTEX
10    
27.256
20  
4.456
0
VERTEX
10    
27.229
20  
4.456
0
VERTEX
10    
27.217
20  
4.473
0
VERTEX
10    
27.204
20  
4.473
0
VERTEX
10    
27.192
20  
4.49
0
VERTEX
10    
27.179
20  
4.499
0
VERTEX
10    
27.168
20  
4.499
0
VERTEX
10    
27.168
20  
4.509
0
VERTEX
10    
27.148
20  
4.525
0
VERTEX
10    
27.129
20  
4.538
0
VERTEX
10    
27.118
20  
4.538
0
VERTEX
10    
27.106
20  
4.555
0
VERTEX
10    
27.088
20  
4.572
0
VERTEX
10    
27.054
20  
4.588
0
VERTEX
10    
27.031
20  
4.6
0
VERTEX
10    
27.017
20  
4.6
0
VERTEX
10    
27
20  
4.619
0
VERTEX
10    
26.976
20  
4.627
0
VERTEX
10    
26.958
20  
4.642
0
VERTEX
10    
26.939
20  
4.646
0
VERTEX
10    
26.924
20  
4.665
0
VERTEX
10    
26.907
20  
4.677
0
VERTEX
10    
26.888
20  
4.69
0
VERTEX
10    
26.863
20  
4.71
0
VERTEX
10    
26.833
20  
4.724
0
VERTEX
10    
26.825
20  
4.727
0
VERTEX
10    
26.821
20  
4.738
0
VERTEX
10    
26.809
20  
4.742
0
VERTEX
10    
26.801
20  
4.759
0
VERTEX
10    
26.774
20  
4.773
0
VERTEX
10    
26.75
20  
4.791
0
VERTEX
10    
26.72
20  
4.797
0
VERTEX
10    
26.697
20  
4.816
0
VERTEX
10    
26.667
20  
4.829
0
VERTEX
10    
26.64
20  
4.829
0
VERTEX
10    
26.612
20  
4.851
0
VERTEX
10    
26.566
20  
4.857
0
VERTEX
10    
26.545
20  
4.871
0
VERTEX
10    
26.516
20  
4.875
0
VERTEX
10    
26.491
20  
4.888
0
VERTEX
10    
26.486
20  
4.897
0
VERTEX
10    
26.474
20  
4.897
0
VERTEX
10    
26.464
20  
4.897
0
VERTEX
10    
26.464
20  
4.908
0
VERTEX
10    
26.451
20  
4.92
0
VERTEX
10    
26.437
20  
4.92
0
VERTEX
10    
26.437
20  
4.931
0
VERTEX
10    
26.427
20  
4.931
0
VERTEX
10    
26.413
20  
4.946
0
VERTEX
10    
26.403
20  
4.946
0
VERTEX
10    
26.403
20  
4.958
0
VERTEX
10    
26.395
20  
4.962
0
VERTEX
10    
26.375
20  
4.972
0
VERTEX
10    
26.371
20  
4.983
0
VERTEX
10    
26.353
20  
4.993
0
VERTEX
10    
26.341
20  
4.993
0
VERTEX
10    
26.341
20  
5.009
0
VERTEX
10    
26.328
20  
5.009
0
VERTEX
10    
26.328
20  
5.023
0
VERTEX
10    
26.308
20  
5.042
0
VERTEX
10    
26.27
20  
5.058
0
VERTEX
10    
26.247
20  
5.058
0
VERTEX
10    
26.235
20  
5.073
0
VERTEX
10    
26.235
20  
5.081
0
VERTEX
10    
26.235
20  
5.097
0
VERTEX
10    
26.235
20  
5.112
0
VERTEX
10    
26.254
20  
5.124
0
VERTEX
10    
26.254
20  
5.14
0
VERTEX
10    
26.284
20  
5.161
0
VERTEX
10    
26.301
20  
5.177
0
VERTEX
10    
26.312
20  
5.189
0
VERTEX
10    
26.326
20  
5.199
0
VERTEX
10    
26.337
20  
5.199
0
VERTEX
10    
26.348
20  
5.22
0
VERTEX
10    
26.348
20  
5.231
0
VERTEX
10    
26.361
20  
5.242
0
VERTEX
10    
26.366
20  
5.25
0
VERTEX
10    
26.376
20  
5.27
0
VERTEX
10    
26.38
20  
5.283
0
VERTEX
10    
26.396
20  
5.3
0
VERTEX
10    
26.402
20  
5.318
0
VERTEX
10    
26.405
20  
5.326
0
VERTEX
10    
26.414
20  
5.333
0
VERTEX
10    
26.413
20  
5.355
0
VERTEX
10    
26.417
20  
5.371
0
VERTEX
10    
26.426
20  
5.394
0
VERTEX
10    
26.435
20  
5.434
0
VERTEX
10    
26.435
20  
5.45
0
VERTEX
10    
26.435
20  
5.465
0
VERTEX
10    
26.448
20  
5.485
0
VERTEX
10    
26.448
20  
5.502
0
VERTEX
10    
26.448
20  
5.529
0
VERTEX
10    
26.466
20  
5.548
0
VERTEX
10    
26.466
20  
5.558
0
VERTEX
10    
26.466
20  
5.571
0
VERTEX
10    
26.481
20  
5.584
0
VERTEX
10    
26.481
20  
5.596
0
VERTEX
10    
26.481
20  
5.612
0
VERTEX
10    
26.494
20  
5.612
0
VERTEX
10    
26.494
20  
5.625
0
VERTEX
10    
26.494
20  
5.636
0
VERTEX
10    
26.504
20  
5.647
0
VERTEX
10    
26.504
20  
5.662
0
VERTEX
10    
26.504
20  
5.674
0
VERTEX
10    
26.513
20  
5.674
0
VERTEX
10    
26.513
20  
5.687
0
VERTEX
10    
26.513
20  
5.697
0
VERTEX
10    
26.524
20  
5.697
0
VERTEX
10    
26.524
20  
5.716
0
VERTEX
10    
26.538
20  
5.726
0
VERTEX
10    
26.551
20  
5.726
0
VERTEX
10    
26.573
20  
5.726
0
VERTEX
10    
26.593
20  
5.726
0
VERTEX
10    
26.606
20  
5.726
0
VERTEX
10    
26.606
20  
5.715
0
VERTEX
10    
26.616
20  
5.715
0
VERTEX
10    
26.627
20  
5.715
0
VERTEX
10    
26.641
20  
5.707
0
VERTEX
10    
26.706
20  
5.69
0
VERTEX
10    
26.749
20  
5.69
0
VERTEX
10    
26.772
20  
5.674
0
VERTEX
10    
26.788
20  
5.674
0
VERTEX
10    
26.806
20  
5.659
0
VERTEX
10    
26.82
20  
5.659
0
VERTEX
10    
26.82
20  
5.644
0
VERTEX
10    
26.833
20  
5.632
0
VERTEX
10    
26.833
20  
5.618
0
VERTEX
10    
26.85
20  
5.618
0
VERTEX
10    
26.85
20  
5.602
0
VERTEX
10    
26.871
20  
5.59
0
VERTEX
10    
26.887
20  
5.575
0
VERTEX
10    
26.911
20  
5.56
0
VERTEX
10    
26.937
20  
5.549
0
VERTEX
10    
26.96
20  
5.537
0
VERTEX
10    
27.025
20  
5.513
0
VERTEX
10    
27.063
20  
5.5
0
VERTEX
10    
27.09
20  
5.483
0
VERTEX
10    
27.118
20  
5.456
0
VERTEX
10    
27.152
20  
5.425
0
VERTEX
10    
27.186
20  
5.395
0
VERTEX
10    
27.238
20  
5.343
0
VERTEX
10    
27.29
20  
5.314
0
VERTEX
10    
27.335
20  
5.285
0
VERTEX
10    
27.4
20  
5.263
0
VERTEX
10    
27.493
20  
5.222
0
VERTEX
10    
27.54
20  
5.199
0
VERTEX
10    
27.593
20  
5.172
0
VERTEX
10    
27.607
20  
5.159
0
VERTEX
10    
27.607
20  
5.148
0
VERTEX
10    
27.635
20  
5.137
0
VERTEX
10    
27.649
20  
5.137
0
VERTEX
10    
27.649
20  
5.124
0
VERTEX
10    
27.664
20  
5.124
0
VERTEX
10    
27.664
20  
5.113
0
VERTEX
10    
27.682
20  
5.113
0
VERTEX
10    
27.693
20  
5.097
0
VERTEX
10    
27.722
20  
5.076
0
VERTEX
10    
27.778
20  
5.04
0
VERTEX
10    
27.854
20  
4.993
0
VERTEX
10    
27.925
20  
4.955
0
VERTEX
10    
27.98
20  
4.921
0
VERTEX
10    
28.044
20  
4.885
0
VERTEX
10    
28.122
20  
4.857
0
VERTEX
10    
28.253
20  
4.818
0
VERTEX
10    
28.321
20  
4.792
0
VERTEX
10    
28.387
20  
4.754
0
VERTEX
10    
28.464
20  
4.704
0
VERTEX
10    
28.514
20  
4.666
0
VERTEX
10    
28.584
20  
4.632
0
VERTEX
10    
28.651
20  
4.591
0
VERTEX
10    
28.717
20  
4.545
0
VERTEX
10    
28.747
20  
4.522
0
VERTEX
10    
28.761
20  
4.504
0
VERTEX
10    
28.782
20  
4.483
0
VERTEX
10    
28.805
20  
4.469
0
VERTEX
10    
28.817
20  
4.469
0
VERTEX
10    
28.833
20  
4.449
0
VERTEX
10    
28.848
20  
4.449
0
VERTEX
10    
28.86
20  
4.435
0
VERTEX
10    
28.871
20  
4.435
0
VERTEX
10    
28.871
20  
4.421
0
VERTEX
10    
28.889
20  
4.421
0
VERTEX
10    
28.904
20  
4.402
0
VERTEX
10    
28.922
20  
4.389
0
VERTEX
10    
28.946
20  
4.379
0
VERTEX
10    
28.968
20  
4.364
0
VERTEX
10    
28.992
20  
4.35
0
VERTEX
10    
29.012
20  
4.337
0
VERTEX
10    
29.025
20  
4.318
0
VERTEX
10    
29.05
20  
4.297
0
VERTEX
10    
29.07
20  
4.275
0
VERTEX
10    
29.088
20  
4.252
0
VERTEX
10    
29.11
20  
4.218
0
VERTEX
10    
29.129
20  
4.186
0
VERTEX
10    
29.149
20  
4.169
0
VERTEX
10    
29.163
20  
4.155
0
VERTEX
10    
29.176
20  
4.142
0
VERTEX
10    
29.187
20  
4.142
0
VERTEX
10    
29.187
20  
4.13
0
VERTEX
10    
29.202
20  
4.13
0
VERTEX
10    
29.202
20  
4.119
0
VERTEX
10    
29.212
20  
4.119
0
VERTEX
10    
29.228
20  
4.097
0
VERTEX
10    
29.253
20  
4.075
0
VERTEX
10    
29.302
20  
4.049
0
VERTEX
10    
29.371
20  
4.031
0
VERTEX
10    
29.42
20  
4.019
0
VERTEX
10    
29.433
20  
4.015
0
VERTEX
10    
29.447
20  
4.005
0
VERTEX
10    
29.471
20  
3.991
0
VERTEX
10    
29.49
20  
3.98
0
VERTEX
10    
29.502
20  
3.98
0
VERTEX
10    
29.502
20  
3.966
0
VERTEX
10    
29.524
20  
3.966
0
VERTEX
10    
29.543
20  
3.944
0
VERTEX
10    
29.564
20  
3.932
0
VERTEX
10    
29.582
20  
3.918
0
VERTEX
10    
29.599
20  
3.904
0
VERTEX
10    
29.62
20  
3.887
0
VERTEX
10    
29.634
20  
3.875
0
VERTEX
10    
29.651
20  
3.862
0
VERTEX
10    
29.664
20  
3.847
0
VERTEX
10    
29.675
20  
3.835
0
VERTEX
10    
29.686
20  
3.824
0
VERTEX
10    
29.706
20  
3.804
0
VERTEX
10    
29.725
20  
3.787
0
VERTEX
10    
29.735
20  
3.787
0
VERTEX
10    
29.746
20  
3.769
0
VERTEX
10    
29.754
20  
3.764
0
VERTEX
10    
29.774
20  
3.753
0
VERTEX
10    
29.786
20  
3.751
0
VERTEX
10    
29.8
20  
3.742
0
VERTEX
10    
29.816
20  
3.737
0
VERTEX
10    
29.833
20  
3.723
0
VERTEX
10    
29.838
20  
3.712
0
VERTEX
10    
29.864
20  
3.697
0
VERTEX
10    
29.874
20  
3.697
0
VERTEX
10    
29.884
20  
3.686
0
VERTEX
10    
29.89
20  
3.677
0
VERTEX
10    
29.897
20  
3.677
0
VERTEX
10    
29.897
20  
3.669
0
VERTEX
10    
29.91
20  
3.669
0
VERTEX
10    
29.91
20  
3.659
0
VERTEX
10    
29.921
20  
3.659
0
VERTEX
10    
29.932
20  
3.659
0
VERTEX
10    
29.932
20  
3.648
0
VERTEX
10    
29.943
20  
3.648
0
VERTEX
10    
29.943
20  
3.63
0
VERTEX
10    
29.955
20  
3.62
0
VERTEX
10    
29.955
20  
3.608
0
VERTEX
10    
29.955
20  
3.592
0
VERTEX
10    
29.966
20  
3.592
0
VERTEX
10    
29.966
20  
3.582
0
VERTEX
10    
29.966
20  
3.568
0
VERTEX
10    
29.952
20  
3.568
0
VERTEX
10    
29.938
20  
3.554
0
VERTEX
10    
29.93
20  
3.554
0
VERTEX
10    
29.91
20  
3.548
0
VERTEX
10    
29.896
20  
3.531
0
VERTEX
10    
29.886
20  
3.525
0
VERTEX
10    
29.873
20  
3.509
0
VERTEX
10    
29.873
20  
3.494
0
VERTEX
10    
29.867
20  
3.485
0
VERTEX
10    
29.857
20  
3.463
0
VERTEX
10    
29.858
20  
3.452
0
VERTEX
10    
29.854
20  
3.439
0
VERTEX
10    
29.844
20  
3.427
0
VERTEX
10    
29.846
20  
3.407
0
VERTEX
10    
29.833
20  
3.385
0
VERTEX
10    
29.833
20  
3.369
0
VERTEX
10    
29.821
20  
3.359
0
VERTEX
10    
29.821
20  
3.344
0
VERTEX
10    
29.808
20  
3.329
0
VERTEX
10    
29.784
20  
3.306
0
VERTEX
10    
29.768
20  
3.293
0
VERTEX
10    
29.751
20  
3.282
0
VERTEX
10    
29.737
20  
3.269
0
VERTEX
10    
29.721
20  
3.254
0
VERTEX
10    
29.706
20  
3.238
0
VERTEX
10    
29.692
20  
3.223
0
VERTEX
10    
29.684
20  
3.213
0
VERTEX
10    
29.675
20  
3.2
0
VERTEX
10    
29.675
20  
3.188
0
VERTEX
10    
29.67
20  
3.18
0
VERTEX
10    
29.654
20  
3.163
0
VERTEX
10    
29.65
20  
3.152
0
VERTEX
10    
29.638
20  
3.14
0
VERTEX
10    
29.638
20  
3.127
0
VERTEX
10    
29.623
20  
3.127
0
VERTEX
10    
29.623
20  
3.106
0
VERTEX
10    
29.61
20  
3.106
0
VERTEX
10    
29.61
20  
3.086
0
VERTEX
10    
29.597
20  
3.062
0
VERTEX
10    
29.592
20  
3.045
0
VERTEX
10    
29.578
20  
3.032
0
VERTEX
10    
29.574
20  
3.02
0
VERTEX
10    
29.558
20  
3.006
0
VERTEX
10    
29.535
20  
2.999
0
VERTEX
10    
29.507
20  
2.976
0
VERTEX
10    
29.482
20  
2.976
0
VERTEX
10    
29.462
20  
2.964
0
VERTEX
10    
29.429
20  
2.964
0
VERTEX
10    
29.375
20  
2.941
0
VERTEX
10    
29.339
20  
2.935
0
VERTEX
10    
29.307
20  
2.929
0
VERTEX
10    
29.276
20  
2.913
0
VERTEX
10    
29.25
20  
2.91
0
VERTEX
10    
29.238
20  
2.898
0
VERTEX
10    
29.224
20  
2.892
0
VERTEX
10    
29.207
20  
2.873
0
VERTEX
10    
29.19
20  
2.862
0
VERTEX
10    
29.17
20  
2.849
0
VERTEX
10    
29.155
20  
2.838
0
VERTEX
10    
29.138
20  
2.831
0
VERTEX
10    
29.123
20  
2.825
0
VERTEX
10    
29.103
20  
2.805
0
VERTEX
10    
29.08
20  
2.794
0
VERTEX
10    
29.04
20  
2.769
0
VERTEX
10    
28.979
20  
2.74
0
VERTEX
10    
28.949
20  
2.722
0
VERTEX
10    
28.914
20  
2.702
0
VERTEX
10    
28.884
20  
2.675
0
VERTEX
10    
28.855
20  
2.642
0
VERTEX
10    
28.824
20  
2.607
0
VERTEX
10    
28.781
20  
2.556
0
VERTEX
10    
28.753
20  
2.525
0
VERTEX
10    
28.727
20  
2.499
0
VERTEX
10    
28.695
20  
2.474
0
VERTEX
10    
28.653
20  
2.443
0
VERTEX
10    
28.563
20  
2.406
0
VERTEX
10    
28.477
20  
2.371
0
VERTEX
10    
28.428
20  
2.342
0
VERTEX
10    
28.371
20  
2.294
0
VERTEX
10    
28.328
20  
2.256
0
VERTEX
10    
28.266
20  
2.208
0
VERTEX
10    
28.115
20  
2.13
0
VERTEX
10    
28.054
20  
2.095
0
VERTEX
10    
28.007
20  
2.067
0
VERTEX
10    
27.941
20  
2.019
0
VERTEX
10    
27.896
20  
1.998
0
VERTEX
10    
27.831
20  
1.965
0
VERTEX
10    
27.747
20  
1.923
0
VERTEX
10    
27.706
20  
1.902
0
VERTEX
10    
27.674
20  
1.881
0
VERTEX
10    
27.644
20  
1.854
0
VERTEX
10    
27.61
20  
1.82
0
VERTEX
10    
27.582
20  
1.79
0
VERTEX
10    
27.556
20  
1.76
0
VERTEX
10    
27.54
20  
1.745
0
VERTEX
10    
27.528
20  
1.729
0
VERTEX
10    
27.513
20  
1.712
0
VERTEX
10    
27.49
20  
1.695
0
VERTEX
10    
27.458
20  
1.68
0
VERTEX
10    
27.429
20  
1.664
0
VERTEX
10    
27.354
20  
1.657
0
VERTEX
10    
27.338
20  
1.644
0
VERTEX
10    
27.322
20  
1.64
0
VERTEX
10    
27.305
20  
1.623
0
VERTEX
10    
27.29
20  
1.618
0
VERTEX
10    
27.276
20  
1.612
0
VERTEX
10    
27.26
20  
1.599
0
VERTEX
10    
27.239
20  
1.584
0
VERTEX
10    
27.225
20  
1.584
0
VERTEX
10    
27.214
20  
1.568
0
VERTEX
10    
27.202
20  
1.568
0
VERTEX
10    
27.18
20  
1.549
0
VERTEX
10    
27.171
20  
1.546
0
VERTEX
10    
27.168
20  
1.536
0
VERTEX
10    
27.156
20  
1.531
0
VERTEX
10    
27.146
20  
1.517
0
VERTEX
10    
27.132
20  
1.511
0
VERTEX
10    
27.111
20  
1.494
0
VERTEX
10    
27.089
20  
1.489
0
VERTEX
10    
27.072
20  
1.466
0
VERTEX
10    
27.048
20  
1.449
0
VERTEX
10    
27.026
20  
1.434
0
VERTEX
10    
27.006
20  
1.417
0
VERTEX
10    
26.98
20  
1.396
0
VERTEX
10    
26.935
20  
1.366
0
VERTEX
10    
26.906
20  
1.343
0
VERTEX
10    
26.877
20  
1.329
0
VERTEX
10    
26.86
20  
1.318
0
VERTEX
10    
26.847
20  
1.318
0
VERTEX
10    
26.835
20  
1.301
0
VERTEX
10    
26.822
20  
1.301
0
VERTEX
10    
26.822
20  
1.29
0
VERTEX
10    
26.811
20  
1.29
0
VERTEX
10    
26.811
20  
1.28
0
VERTEX
10    
26.8
20  
1.28
0
VERTEX
10    
26.789
20  
1.28
0
VERTEX
10    
26.789
20  
1.271
0
VERTEX
10    
26.775
20  
1.271
0
VERTEX
10    
26.775
20  
1.26
0
VERTEX
10    
26.76
20  
1.26
0
VERTEX
10    
26.76
20  
1.246
0
VERTEX
10    
26.748
20  
1.246
0
VERTEX
10    
26.748
20  
1.235
0
VERTEX
10    
26.734
20  
1.235
0
VERTEX
10    
26.723
20  
1.223
0
VERTEX
10    
26.708
20  
1.223
0
VERTEX
10    
26.698
20  
1.217
0
VERTEX
10    
26.674
20  
1.207
0
VERTEX
10    
26.662
20  
1.209
0
VERTEX
10    
26.638
20  
1.209
0
VERTEX
10    
26.617
20  
1.209
0
VERTEX
10    
26.605
20  
1.209
0
VERTEX
10    
26.601
20  
1.225
0
VERTEX
10    
26.601
20  
1.238
0
VERTEX
10    
26.589
20  
1.238
0
VERTEX
10    
26.589
20  
1.254
0
VERTEX
10    
26.585
20  
1.262
0
VERTEX
10    
26.576
20  
1.283
0
VERTEX
10    
26.571
20  
1.296
0
VERTEX
10    
26.553
20  
1.315
0
VERTEX
10    
26.54
20  
1.335
0
VERTEX
10    
26.533
20  
1.347
0
VERTEX
10    
26.528
20  
1.359
0
VERTEX
10    
26.509
20  
1.375
0
VERTEX
10    
26.498
20  
1.397
0
VERTEX
10    
26.491
20  
1.423
0
VERTEX
10    
26.477
20  
1.443
0
VERTEX
10    
26.477
20  
1.457
0
VERTEX
10    
26.465
20  
1.471
0
VERTEX
10    
26.465
20  
1.492
0
VERTEX
10    
26.45
20  
1.505
0
VERTEX
10    
26.45
20  
1.521
0
VERTEX
10    
26.437
20  
1.537
0
VERTEX
10    
26.437
20  
1.554
0
VERTEX
10    
26.417
20  
1.574
0
VERTEX
10    
26.406
20  
1.594
0
VERTEX
10    
26.394
20  
1.615
0
VERTEX
10    
26.394
20  
1.631
0
VERTEX
10    
26.375
20  
1.645
0
VERTEX
10    
26.375
20  
1.66
0
VERTEX
10    
26.361
20  
1.66
0
VERTEX
10    
26.361
20  
1.676
0
VERTEX
10    
26.35
20  
1.694
0
VERTEX
10    
26.337
20  
1.715
0
VERTEX
10    
26.322
20  
1.733
0
VERTEX
10    
26.306
20  
1.752
0
VERTEX
10    
26.306
20  
1.764
0
VERTEX
10    
26.288
20  
1.777
0
VERTEX
10    
26.276
20  
1.794
0
VERTEX
10    
26.265
20  
1.814
0
VERTEX
10    
26.246
20  
1.838
0
VERTEX
10    
26.232
20  
1.838
0
VERTEX
10    
26.232
20  
1.851
0
VERTEX
10    
26.217
20  
1.851
0
VERTEX
10    
26.217
20  
1.861
0
VERTEX
10    
26.228
20  
1.873
0
VERTEX
10    
26.236
20  
1.881
0
VERTEX
10    
26.258
20  
1.896
0
VERTEX
10    
26.268
20  
1.901
0
VERTEX
10    
26.281
20  
1.921
0
VERTEX
10    
26.3
20  
1.932
0
VERTEX
10    
26.324
20  
1.947
0
VERTEX
10    
26.355
20  
1.958
0
VERTEX
10    
26.379
20  
1.962
0
VERTEX
10    
26.403
20  
1.978
0
VERTEX
10    
26.421
20  
1.988
0
VERTEX
10    
26.437
20  
2.001
0
VERTEX
10    
26.469
20  
2.024
0
VERTEX
10    
26.494
20  
2.038
0
VERTEX
10    
26.522
20  
2.057
0
VERTEX
10    
26.57
20  
2.071
0
VERTEX
10    
26.632
20  
2.097
0
VERTEX
10    
26.673
20  
2.116
0
VERTEX
10    
26.702
20  
2.135
0
VERTEX
10    
26.734
20  
2.161
0
VERTEX
10    
26.767
20  
2.182
0
VERTEX
10    
26.792
20  
2.208
0
VERTEX
10    
26.825
20  
2.252
0
VERTEX
10    
26.848
20  
2.276
0
VERTEX
10    
26.883
20  
2.306
0
VERTEX
10    
26.928
20  
2.334
0
VERTEX
10    
26.983
20  
2.357
0
VERTEX
10    
27.044
20  
2.384
0
VERTEX
10    
27.082
20  
2.404
0
VERTEX
10    
27.148
20  
2.439
0
VERTEX
10    
27.174
20  
2.456
0
VERTEX
10    
27.189
20  
2.467
0
VERTEX
10    
27.209
20  
2.485
0
VERTEX
10    
27.233
20  
2.504
0
VERTEX
10    
27.274
20  
2.526
0
VERTEX
10    
27.317
20  
2.551
0
VERTEX
10    
27.349
20  
2.574
0
VERTEX
10    
27.379
20  
2.598
0
VERTEX
10    
27.43
20  
2.647
0
VERTEX
10    
27.48
20  
2.693
0
VERTEX
10    
27.532
20  
2.724
0
VERTEX
10    
27.566
20  
2.746
0
VERTEX
10    
27.587
20  
2.765
0
VERTEX
10    
27.608
20  
2.786
0
VERTEX
10    
27.64
20  
2.805
0
VERTEX
10    
27.675
20  
2.825
0
VERTEX
10    
27.709
20  
2.844
0
VERTEX
10    
27.738
20  
2.856
0
VERTEX
10    
27.765
20  
2.875
0
VERTEX
10    
27.805
20  
2.896
0
VERTEX
10    
27.854
20  
2.917
0
VERTEX
10    
27.899
20  
2.936
0
VERTEX
10    
27.924
20  
2.954
0
VERTEX
10    
27.941
20  
2.967
0
VERTEX
10    
27.941
20  
2.981
0
VERTEX
10    
27.963
20  
3
0
VERTEX
10    
27.978
20  
3.026
0
VERTEX
10    
28.017
20  
3.063
0
VERTEX
10    
28.043
20  
3.082
0
VERTEX
10    
28.071
20  
3.091
0
VERTEX
10    
28.082
20  
3.103
0
VERTEX
10    
28.095
20  
3.111
0
VERTEX
10    
28.109
20  
3.116
0
VERTEX
10    
28.12
20  
3.131
0
VERTEX
10    
28.128
20  
3.137
0
VERTEX
10    
28.11
20  
3.136
0
VERTEX
10    
28.091
20  
3.136
0
VERTEX
10    
28.073
20  
3.131
0
VERTEX
10    
28.056
20  
3.131
0
VERTEX
10    
28.043
20  
3.131
0
VERTEX
10    
28.029
20  
3.131
0
VERTEX
10    
28.011
20  
3.131
0
VERTEX
10    
27.984
20  
3.131
0
VERTEX
10    
27.962
20  
3.131
0
VERTEX
10    
27.936
20  
3.131
0
VERTEX
10    
27.912
20  
3.131
0
VERTEX
10    
27.889
20  
3.13
0
VERTEX
10    
27.856
20  
3.129
0
VERTEX
10    
27.809
20  
3.129
0
VERTEX
10    
27.744
20  
3.129
0
VERTEX
10    
27.684
20  
3.129
0
VERTEX
10    
27.649
20  
3.133
0
VERTEX
10    
27.608
20  
3.141
0
VERTEX
10    
27.561
20  
3.139
0
VERTEX
10    
27.51
20  
3.139
0
VERTEX
10    
27.432
20  
3.144
0
VERTEX
10    
27.339
20  
3.154
0
VERTEX
10    
27.281
20  
3.152
0
VERTEX
10    
27.232
20  
3.152
0
VERTEX
10    
27.184
20  
3.156
0
VERTEX
10    
27.139
20  
3.164
0
VERTEX
10    
27.08
20  
3.163
0
VERTEX
10    
27.001
20  
3.163
0
VERTEX
10    
26.934
20  
3.163
0
VERTEX
10    
26.895
20  
3.163
0
VERTEX
10    
26.858
20  
3.163
0
VERTEX
10    
26.823
20  
3.163
0
VERTEX
10    
26.794
20  
3.163
0
VERTEX
10    
26.758
20  
3.163
0
VERTEX
10    
26.709
20  
3.165
0
VERTEX
10    
26.656
20  
3.171
0
VERTEX
10    
26.603
20  
3.17
0
VERTEX
10    
26.539
20  
3.17
0
VERTEX
10    
26.482
20  
3.17
0
VERTEX
10    
26.439
20  
3.17
0
VERTEX
10    
26.4
20  
3.17
0
VERTEX
10    
26.365
20  
3.17
0
VERTEX
10    
26.328
20  
3.17
0
VERTEX
10    
26.29
20  
3.17
0
VERTEX
10    
26.239
20  
3.174
0
VERTEX
10    
26.187
20  
3.181
0
VERTEX
10    
26.137
20  
3.18
0
VERTEX
10    
26.114
20  
3.18
0
VERTEX
10    
26.097
20  
3.18
0
VERTEX
10    
26.078
20  
3.18
0
VERTEX
10    
26.055
20  
3.18
0
VERTEX
10    
26.028
20  
3.18
0
VERTEX
10    
26
20  
3.18
0
VERTEX
10    
25.979
20  
3.18
0
VERTEX
10    
25.968
20  
3.185
0
VERTEX
10    
25.948
20  
3.185
0
VERTEX
10    
25.926
20  
3.185
0
VERTEX
10    
25.887
20  
3.185
0
VERTEX
10    
25.845
20  
3.185
0
VERTEX
10    
25.808
20  
3.185
0
VERTEX
10    
25.783
20  
3.185
0
VERTEX
10    
25.747
20  
3.185
0
VERTEX
10    
25.69
20  
3.185
0
VERTEX
10    
25.648
20  
3.185
0
VERTEX
10    
25.614
20  
3.185
0
VERTEX
10    
25.598
20  
3.185
0
VERTEX
10    
25.585
20  
3.185
0
VERTEX
10    
25.562
20  
3.189
0
VERTEX
10    
25.515
20  
3.196
0
VERTEX
10    
25.46
20  
3.195
0
VERTEX
10    
25.408
20  
3.195
0
VERTEX
10    
25.368
20  
3.195
0
VERTEX
10    
25.307
20  
3.195
0
VERTEX
10    
25.246
20  
3.195
0
VERTEX
10    
25.213
20  
3.195
0
VERTEX
10    
25.19
20  
3.195
0
VERTEX
10    
25.132
20  
3.195
0
VERTEX
10    
25.075
20  
3.195
0
VERTEX
10    
25.008
20  
3.195
0
VERTEX
10    
24.897
20  
3.203
0
VERTEX
10    
24.833
20  
3.202
0
VERTEX
10    
24.779
20  
3.202
0
VERTEX
10    
24.714
20  
3.202
0
VERTEX
10    
24.635
20  
3.202
0
VERTEX
10    
24.502
20  
3.202
0
VERTEX
10    
24.436
20  
3.202
0
VERTEX
10    
24.353
20  
3.198
0
VERTEX
10    
24.267
20  
3.19
0
VERTEX
10    
24.164
20  
3.191
0
VERTEX
10    
24.071
20  
3.191
0
VERTEX
10    
24.01
20  
3.191
0
VERTEX
10    
23.95
20  
3.191
0
VERTEX
10    
23.885
20  
3.191
0
VERTEX
10    
23.808
20  
3.191
0
VERTEX
10    
23.711
20  
3.196
0
VERTEX
10    
23.607
20  
3.202
0
VERTEX
10    
23.531
20  
3.206
0
VERTEX
10    
23.497
20  
3.215
0
VERTEX
10    
23.438
20  
3.213
0
VERTEX
10    
23.359
20  
3.213
0
VERTEX
10    
23.28
20  
3.213
0
VERTEX
10    
23.22
20  
3.213
0
VERTEX
10    
23.181
20  
3.213
0
VERTEX
10    
23.145
20  
3.217
0
VERTEX
10    
23.099
20  
3.225
0
VERTEX
10    
23.018
20  
3.224
0
VERTEX
10    
22.929
20  
3.224
0
VERTEX
10    
22.859
20  
3.224
0
VERTEX
10    
22.805
20  
3.224
0
VERTEX
10    
22.752
20  
3.224
0
VERTEX
10    
22.699
20  
3.224
0
VERTEX
10    
22.618
20  
3.224
0
VERTEX
10    
22.527
20  
3.224
0
VERTEX
10    
22.456
20  
3.224
0
VERTEX
10    
22.399
20  
3.224
0
VERTEX
10    
22.355
20  
3.224
0
VERTEX
10    
22.297
20  
3.227
0
VERTEX
10    
22.224
20  
3.232
0
VERTEX
10    
22.147
20  
3.231
0
VERTEX
10    
22.079
20  
3.231
0
VERTEX
10    
22.031
20  
3.231
0
VERTEX
10    
21.979
20  
3.231
0
VERTEX
10    
21.913
20  
3.231
0
VERTEX
10    
21.834
20  
3.231
0
VERTEX
10    
21.722
20  
3.231
0
VERTEX
10    
21.638
20  
3.231
0
VERTEX
10    
21.58
20  
3.233
0
VERTEX
10    
21.532
20  
3.238
0
VERTEX
10    
21.469
20  
3.237
0
VERTEX
10    
21.369
20  
3.237
0
VERTEX
10    
21.267
20  
3.237
0
VERTEX
10    
21.213
20  
3.237
0
VERTEX
10    
21.159
20  
3.237
0
VERTEX
10    
21.104
20  
3.241
0
VERTEX
10    
21.027
20  
3.248
0
VERTEX
10    
20.933
20  
3.247
0
VERTEX
10    
20.864
20  
3.247
0
VERTEX
10    
20.813
20  
3.247
0
VERTEX
10    
20.777
20  
3.253
0
VERTEX
10    
20.731
20  
3.264
0
VERTEX
10    
20.652
20  
3.255
0
VERTEX
10    
20.555
20  
3.241
0
VERTEX
10    
20.477
20  
3.249
0
VERTEX
10    
20.442
20  
3.254
0
VERTEX
10    
20.394
20  
3.239
0
VERTEX
10    
20.354
20  
3.241
0
VERTEX
10    
20.304
20  
3.241
0
VERTEX
10    
20.241
20  
3.241
0
VERTEX
10    
20.185
20  
3.241
0
VERTEX
10    
20.131
20  
3.246
0
VERTEX
10    
20.094
20  
3.254
0
VERTEX
10    
20.049
20  
3.257
0
VERTEX
10    
20.014
20  
3.266
0
VERTEX
10    
19.981
20  
3.264
0
VERTEX
10    
19.954
20  
3.264
0
VERTEX
10    
19.927
20  
3.264
0
VERTEX
10    
19.892
20  
3.271
0
VERTEX
10    
19.846
20  
3.284
0
VERTEX
10    
19.803
20  
3.281
0
VERTEX
10    
19.752
20  
3.281
0
VERTEX
10    
19.72
20  
3.281
0
VERTEX
10    
19.689
20  
3.281
0
VERTEX
10    
19.668
20  
3.281
0
VERTEX
10    
19.65
20  
3.281
0
VERTEX
10    
19.623
20  
3.281
0
VERTEX
10    
19.578
20  
3.281
0
VERTEX
10    
19.534
20  
3.281
0
VERTEX
10    
19.488
20  
3.277
0
VERTEX
10    
19.446
20  
3.269
0
VERTEX
10    
19.401
20  
3.271
0
VERTEX
10    
19.347
20  
3.271
0
VERTEX
10    
19.303
20  
3.271
0
VERTEX
10    
19.256
20  
3.264
0
VERTEX
10    
19.211
20  
3.252
0
VERTEX
10    
19.176
20  
3.254
0
VERTEX
10    
19.159
20  
3.254
0
VERTEX
10    
19.135
20  
3.254
0
VERTEX
10    
19.1
20  
3.254
0
VERTEX
10    
19.067
20  
3.254
0
VERTEX
10    
19.029
20  
3.254
0
VERTEX
10    
18.991
20  
3.254
0
VERTEX
10    
18.95
20  
3.254
0
VERTEX
10    
18.917
20  
3.254
0
VERTEX
10    
18.88
20  
3.257
0
VERTEX
10    
18.855
20  
3.265
0
VERTEX
10    
18.834
20  
3.264
0
VERTEX
10    
18.811
20  
3.264
0
VERTEX
10    
18.789
20  
3.264
0
VERTEX
10    
18.768
20  
3.269
0
VERTEX
10    
18.743
20  
3.278
0
VERTEX
10    
18.705
20  
3.277
0
VERTEX
10    
18.663
20  
3.277
0
VERTEX
10    
18.619
20  
3.277
0
VERTEX
10    
18.579
20  
3.277
0
VERTEX
10    
18.532
20  
3.277
0
VERTEX
10    
18.484
20  
3.277
0
VERTEX
10    
18.435
20  
3.277
0
VERTEX
10    
18.404
20  
3.277
0
VERTEX
10    
18.371
20  
3.277
0
VERTEX
10    
18.319
20  
3.28
0
VERTEX
10    
18.284
20  
3.288
0
VERTEX
10    
18.268
20  
3.287
0
VERTEX
10    
18.247
20  
3.283
0
VERTEX
10    
18.212
20  
3.275
0
VERTEX
10    
18.165
20  
3.277
0
VERTEX
10    
18.127
20  
3.28
0
VERTEX
10    
18.093
20  
3.288
0
VERTEX
10    
18.062
20  
3.287
0
VERTEX
10    
18.027
20  
3.291
0
VERTEX
10    
18.012
20  
3.299
0
VERTEX
10    
17.997
20  
3.298
0
VERTEX
10    
17.981
20  
3.298
0
VERTEX
10    
17.963
20  
3.302
0
VERTEX
10    
17.94
20  
3.31
0
VERTEX
10    
17.918
20  
3.309
0
VERTEX
10    
17.894
20  
3.309
0
VERTEX
10    
17.867
20  
3.309
0
VERTEX
10    
17.82
20  
3.313
0
VERTEX
10    
17.764
20  
3.32
0
VERTEX
10    
17.735
20  
3.319
0
VERTEX
10    
17.701
20  
3.319
0
VERTEX
10    
17.675
20  
3.319
0
VERTEX
10    
17.651
20  
3.319
0
VERTEX
10    
17.589
20  
3.319
0
VERTEX
10    
17.577
20  
3.319
0
VERTEX
10    
17.55
20  
3.319
0
VERTEX
10    
17.527
20  
3.319
0
VERTEX
10    
17.504
20  
3.321
0
VERTEX
10    
17.477
20  
3.323
0
VERTEX
10    
17.446
20  
3.323
0
VERTEX
10    
17.414
20  
3.323
0
VERTEX
10    
17.379
20  
3.323
0
VERTEX
10    
17.352
20  
3.323
0
VERTEX
10    
17.332
20  
3.323
0
VERTEX
10    
17.318
20  
3.323
0
VERTEX
10    
17.303
20  
3.323
0
VERTEX
10    
17.289
20  
3.323
0
VERTEX
10    
17.276
20  
3.327
0
VERTEX
10    
17.261
20  
3.335
0
VERTEX
10    
17.246
20  
3.334
0
VERTEX
10    
17.233
20  
3.334
0
VERTEX
10    
17.212
20  
3.334
0
VERTEX
10    
17.185
20  
3.334
0
VERTEX
10    
17.161
20  
3.334
0
VERTEX
10    
17.125
20  
3.334
0
VERTEX
10    
17.091
20  
3.334
0
VERTEX
10    
17.063
20  
3.334
0
VERTEX
10    
17.015
20  
3.336
0
VERTEX
10    
16.955
20  
3.341
0
VERTEX
10    
16.899
20  
3.34
0
VERTEX
10    
16.857
20  
3.34
0
VERTEX
10    
16.826
20  
3.34
0
VERTEX
10    
16.792
20  
3.34
0
VERTEX
10    
16.743
20  
3.34
0
VERTEX
10    
16.708
20  
3.34
0
VERTEX
10    
16.688
20  
3.34
0
VERTEX
10    
16.652
20  
3.34
0
VERTEX
10    
16.602
20  
3.343
0
VERTEX
10    
16.54
20  
3.348
0
VERTEX
10    
16.484
20  
3.347
0
VERTEX
10    
16.444
20  
3.347
0
VERTEX
10    
16.417
20  
3.347
0
VERTEX
10    
16.388
20  
3.347
0
VERTEX
10    
16.36
20  
3.347
0
VERTEX
10    
16.327
20  
3.347
0
VERTEX
10    
16.288
20  
3.347
0
VERTEX
10    
16.251
20  
3.347
0
VERTEX
10    
16.203
20  
3.347
0
VERTEX
10    
16.15
20  
3.347
0
VERTEX
10    
16.112
20  
3.347
0
VERTEX
10    
16.081
20  
3.347
0
VERTEX
10    
16.053
20  
3.347
0
VERTEX
10    
16.024
20  
3.347
0
VERTEX
10    
16.008
20  
3.347
0
VERTEX
10    
15.99
20  
3.347
0
VERTEX
10    
15.975
20  
3.347
0
VERTEX
10    
15.96
20  
3.347
0
VERTEX
10    
15.947
20  
3.351
0
VERTEX
10    
15.93
20  
3.359
0
VERTEX
10    
15.909
20  
3.357
0
VERTEX
10    
15.883
20  
3.357
0
VERTEX
10    
15.85
20  
3.357
0
VERTEX
10    
15.818
20  
3.357
0
VERTEX
10    
15.783
20  
3.357
0
VERTEX
10    
15.739
20  
3.357
0
VERTEX
10    
15.7
20  
3.357
0
VERTEX
10    
15.663
20  
3.357
0
VERTEX
10    
15.632
20  
3.357
0
VERTEX
10    
15.599
20  
3.357
0
VERTEX
10    
15.565
20  
3.357
0
VERTEX
10    
15.527
20  
3.354
0
VERTEX
10    
15.482
20  
3.346
0
VERTEX
10    
15.423
20  
3.347
0
VERTEX
10    
15.346
20  
3.342
0
VERTEX
10    
15.278
20  
3.331
0
VERTEX
10    
15.233
20  
3.333
0
VERTEX
10    
15.2
20  
3.333
0
VERTEX
10    
15.17
20  
3.329
0
VERTEX
10    
15.147
20  
3.322
0
VERTEX
10    
15.121
20  
3.323
0
VERTEX
10    
15.093
20  
3.323
0
VERTEX
10    
15.074
20  
3.323
0
VERTEX
10    
15.071
20  
3.333
0
VERTEX
10    
15.071
20  
3.343
0
VERTEX
10    
15.075
20  
3.351
0
VERTEX
10    
15.085
20  
3.373
0
VERTEX
10    
15.088
20  
3.388
0
VERTEX
10    
15.098
20  
3.41
0
VERTEX
10    
15.107
20  
3.445
0
VERTEX
10    
15.107
20  
3.462
0
VERTEX
10    
15.107
20  
3.476
0
VERTEX
10    
15.107
20  
3.489
0
VERTEX
10    
15.118
20  
3.489
0
VERTEX
10    
15.118
20  
3.513
0
VERTEX
10    
15.118
20  
3.528
0
VERTEX
10    
15.118
20  
3.548
0
VERTEX
10    
15.118
20  
3.568
0
VERTEX
10    
15.13
20  
3.583
0
VERTEX
10    
15.13
20  
3.594
0
VERTEX
10    
15.13
20  
3.608
0
VERTEX
10    
15.13
20  
3.622
0
VERTEX
10    
15.13
20  
3.645
0
VERTEX
10    
15.14
20  
3.667
0
VERTEX
10    
15.14
20  
3.693
0
VERTEX
10    
15.14
20  
3.722
0
VERTEX
10    
15.14
20  
3.747
0
VERTEX
10    
15.14
20  
3.79
0
VERTEX
10    
15.14
20  
3.828
0
VERTEX
10    
15.14
20  
3.858
0
VERTEX
10    
15.14
20  
3.888
0
VERTEX
10    
15.14
20  
3.91
0
VERTEX
10    
15.14
20  
3.931
0
VERTEX
10    
15.144
20  
3.95
0
VERTEX
10    
15.144
20  
3.975
0
VERTEX
10    
15.144
20  
4.003
0
VERTEX
10    
15.144
20  
4.022
0
VERTEX
10    
15.144
20  
4.046
0
VERTEX
10    
15.144
20  
4.066
0
VERTEX
10    
15.144
20  
4.08
0
VERTEX
10    
15.144
20  
4.095
0
VERTEX
10    
15.133
20  
4.107
0
VERTEX
10    
15.133
20  
4.117
0
VERTEX
10    
15.144
20  
4.117
0
VERTEX
10    
15.156
20  
4.117
0
VERTEX
10    
15.169
20  
4.128
0
VERTEX
10    
15.186
20  
4.138
0
VERTEX
10    
15.272
20  
4.146
0
VERTEX
10    
15.31
20  
4.162
0
VERTEX
10    
15.335
20  
4.16
0
VERTEX
10    
15.35
20  
4.16
0
VERTEX
10    
15.37
20  
4.16
0
VERTEX
10    
15.378
20  
4.16
0
VERTEX
10    
15.388
20  
4.155
0
VERTEX
10    
15.39
20  
4.146
0
VERTEX
10    
15.398
20  
4.148
0
VERTEX
10    
15.382
20  
4.138
0     
SEQEND
0 
POLYLINE
8     
PlasmaCutterPath
70  
0  
6 
Continuous
40    
0.1
41 
0.1   
43
0.1
0
VERTEX
10    
13.364
20  
14.752
0
VERTEX
10    
13.379
20  
14.744
0
VERTEX
10    
13.396
20  
14.744
0
VERTEX
10    
13.414
20  
14.744
0
VERTEX
10    
13.436
20  
14.744
0
VERTEX
10    
13.449
20  
14.744
0
VERTEX
10    
13.463
20  
14.744
0
VERTEX
10    
13.488
20  
14.744
0
VERTEX
10    
13.532
20  
14.744
0
VERTEX
10    
13.564
20  
14.744
0
VERTEX
10    
13.591
20  
14.744
0
VERTEX
10    
13.621
20  
14.744
0
VERTEX
10    
13.643
20  
14.744
0
VERTEX
10    
13.674
20  
14.739
0
VERTEX
10    
13.718
20  
14.73
0
VERTEX
10    
13.769
20  
14.732
0
VERTEX
10    
13.825
20  
14.732
0
VERTEX
10    
13.877
20  
14.732
0
VERTEX
10    
13.907
20  
14.732
0
VERTEX
10    
13.938
20  
14.732
0
VERTEX
10    
13.967
20  
14.732
0
VERTEX
10    
14.003
20  
14.732
0
VERTEX
10    
14.048
20  
14.732
0
VERTEX
10    
14.089
20  
14.731
0
VERTEX
10    
14.146
20  
14.729
0
VERTEX
10    
14.217
20  
14.729
0
VERTEX
10    
14.283
20  
14.729
0
VERTEX
10    
14.316
20  
14.729
0
VERTEX
10    
14.337
20  
14.729
0
VERTEX
10    
14.351
20  
14.729
0
VERTEX
10    
14.366
20  
14.729
0
VERTEX
10    
14.386
20  
14.729
0
VERTEX
10    
14.401
20  
14.729
0
VERTEX
10    
14.41
20  
14.729
0
VERTEX
10    
14.421
20  
14.729
0
VERTEX
10    
14.429
20  
14.729
0
VERTEX
10    
14.434
20  
14.729
0
VERTEX
10    
14.443
20  
14.728
0
VERTEX
10    
14.453
20  
14.728
0
VERTEX
10    
14.46
20  
14.728
0
VERTEX
10    
14.481
20  
14.728
0
VERTEX
10    
14.494
20  
14.728
0
VERTEX
10    
14.509
20  
14.728
0
VERTEX
10    
14.534
20  
14.728
0
VERTEX
10    
14.568
20  
14.724
0
VERTEX
10    
14.611
20  
14.716
0
VERTEX
10    
14.65
20  
14.718
0
VERTEX
10    
14.671
20  
14.718
0
VERTEX
10    
14.686
20  
14.718
0
VERTEX
10    
14.702
20  
14.718
0
VERTEX
10    
14.721
20  
14.718
0
VERTEX
10    
14.743
20  
14.718
0
VERTEX
10    
14.766
20  
14.718
0
VERTEX
10    
14.793
20  
14.718
0
VERTEX
10    
14.826
20  
14.718
0
VERTEX
10    
14.863
20  
14.718
0
VERTEX
10    
14.906
20  
14.718
0
VERTEX
10    
14.968
20  
14.718
0
VERTEX
10    
15.054
20  
14.718
0
VERTEX
10    
15.129
20  
14.718
0
VERTEX
10    
15.181
20  
14.723
0
VERTEX
10    
15.236
20  
14.733
0
VERTEX
10    
15.293
20  
14.731
0
VERTEX
10    
15.38
20  
14.731
0
VERTEX
10    
15.486
20  
14.738
0
VERTEX
10    
15.559
20  
14.75
0
VERTEX
10    
15.619
20  
14.752
0
VERTEX
10    
15.685
20  
14.76
0
VERTEX
10    
15.779
20  
14.759
0
VERTEX
10    
15.901
20  
14.763
0
VERTEX
10    
15.973
20  
14.773
0
VERTEX
10    
16.03
20  
14.771
0
VERTEX
10    
16.102
20  
14.771
0
VERTEX
10    
16.216
20  
14.771
0
VERTEX
10    
16.327
20  
14.771
0
VERTEX
10    
16.391
20  
14.771
0
VERTEX
10    
16.448
20  
14.771
0
VERTEX
10    
16.521
20  
14.765
0
VERTEX
10    
16.621
20  
14.753
0
VERTEX
10    
16.712
20  
14.75
0
VERTEX
10    
16.788
20  
14.735
0
VERTEX
10    
16.851
20  
14.724
0
VERTEX
10    
16.92
20  
14.711
0
VERTEX
10    
17.012
20  
14.704
0
VERTEX
10    
17.084
20  
14.706
0
VERTEX
10    
17.125
20  
14.706
0
VERTEX
10    
17.16
20  
14.706
0
VERTEX
10    
17.196
20  
14.706
0
VERTEX
10    
17.226
20  
14.706
0
VERTEX
10    
17.244
20  
14.706
0
VERTEX
10    
17.26
20  
14.706
0
VERTEX
10    
17.273
20  
14.706
0
VERTEX
10    
17.286
20  
14.706
0
VERTEX
10    
17.299
20  
14.706
0
VERTEX
10    
17.313
20  
14.708
0
VERTEX
10    
17.331
20  
14.708
0
VERTEX
10    
17.349
20  
14.708
0
VERTEX
10    
17.368
20  
14.708
0
VERTEX
10    
17.382
20  
14.708
0
VERTEX
10    
17.403
20  
14.708
0
VERTEX
10    
17.428
20  
14.708
0
VERTEX
10    
17.448
20  
14.708
0
VERTEX
10    
17.474
20  
14.708
0
VERTEX
10    
17.496
20  
14.708
0
VERTEX
10    
17.515
20  
14.704
0
VERTEX
10    
17.539
20  
14.704
0
VERTEX
10    
17.575
20  
14.704
0
VERTEX
10    
17.652
20  
14.717
0
VERTEX
10    
17.711
20  
14.716
0
VERTEX
10    
17.794
20  
14.716
0
VERTEX
10    
17.886
20  
14.716
0
VERTEX
10    
17.964
20  
14.716
0
VERTEX
10    
18.023
20  
14.716
0
VERTEX
10    
18.097
20  
14.716
0
VERTEX
10    
18.185
20  
14.712
0
VERTEX
10    
18.279
20  
14.704
0
VERTEX
10    
18.357
20  
14.705
0
VERTEX
10    
18.4
20  
14.705
0
VERTEX
10    
18.447
20  
14.705
0
VERTEX
10    
18.488
20  
14.705
0
VERTEX
10    
18.537
20  
14.705
0
VERTEX
10    
18.593
20  
14.705
0
VERTEX
10    
18.651
20  
14.705
0
VERTEX
10    
18.691
20  
14.705
0
VERTEX
10    
18.723
20  
14.704
0
VERTEX
10    
18.744
20  
14.7
0
VERTEX
10    
18.764
20  
14.701
0
VERTEX
10    
18.795
20  
14.701
0
VERTEX
10    
18.832
20  
14.701
0
VERTEX
10    
18.864
20  
14.701
0
VERTEX
10    
18.906
20  
14.701
0
VERTEX
10    
18.967
20  
14.701
0
VERTEX
10    
19.047
20  
14.701
0
VERTEX
10    
19.125
20  
14.701
0
VERTEX
10    
19.169
20  
14.699
0
VERTEX
10    
19.217
20  
14.694
0
VERTEX
10    
19.26
20  
14.695
0
VERTEX
10    
19.297
20  
14.695
0
VERTEX
10    
19.353
20  
14.695
0
VERTEX
10    
19.427
20  
14.695
0
VERTEX
10    
19.499
20  
14.695
0
VERTEX
10    
19.541
20  
14.695
0
VERTEX
10    
19.584
20  
14.695
0
VERTEX
10    
19.632
20  
14.695
0
VERTEX
10    
19.676
20  
14.695
0
VERTEX
10    
19.735
20  
14.695
0
VERTEX
10    
19.827
20  
14.695
0
VERTEX
10    
19.93
20  
14.694
0
VERTEX
10    
19.997
20  
14.694
0
VERTEX
10    
20.068
20  
14.694
0
VERTEX
10    
20.148
20  
14.694
0
VERTEX
10    
20.262
20  
14.694
0
VERTEX
10    
20.372
20  
14.694
0
VERTEX
10    
20.444
20  
14.694
0
VERTEX
10    
20.529
20  
14.694
0
VERTEX
10    
20.647
20  
14.694
0
VERTEX
10    
20.761
20  
14.694
0
VERTEX
10    
20.833
20  
14.694
0
VERTEX
10    
20.927
20  
14.694
0
VERTEX
10    
21.048
20  
14.692
0
VERTEX
10    
21.151
20  
14.689
0
VERTEX
10    
21.225
20  
14.689
0
VERTEX
10    
21.303
20  
14.689
0
VERTEX
10    
21.395
20  
14.689
0
VERTEX
10    
21.503
20  
14.689
0
VERTEX
10    
21.577
20  
14.689
0
VERTEX
10    
21.647
20  
14.689
0
VERTEX
10    
21.716
20  
14.689
0
VERTEX
10    
21.814
20  
14.689
0
VERTEX
10    
21.918
20  
14.689
0
VERTEX
10    
21.978
20  
14.689
0
VERTEX
10    
22.042
20  
14.689
0
VERTEX
10    
22.116
20  
14.689
0
VERTEX
10    
22.225
20  
14.689
0
VERTEX
10    
22.332
20  
14.689
0
VERTEX
10    
22.399
20  
14.689
0
VERTEX
10    
22.474
20  
14.689
0
VERTEX
10    
22.549
20  
14.689
0
VERTEX
10    
22.654
20  
14.689
0
VERTEX
10    
22.767
20  
14.689
0
VERTEX
10    
22.847
20  
14.689
0
VERTEX
10    
22.945
20  
14.689
0
VERTEX
10    
23.068
20  
14.689
0
VERTEX
10    
23.181
20  
14.689
0
VERTEX
10    
23.251
20  
14.688
0
VERTEX
10    
23.326
20  
14.686
0
VERTEX
10    
23.437
20  
14.686
0
VERTEX
10    
23.542
20  
14.686
0
VERTEX
10    
23.606
20  
14.686
0
VERTEX
10    
23.673
20  
14.686
0
VERTEX
10    
23.736
20  
14.686
0
VERTEX
10    
23.823
20  
14.686
0
VERTEX
10    
23.914
20  
14.686
0
VERTEX
10    
23.986
20  
14.686
0
VERTEX
10    
24.061
20  
14.686
0
VERTEX
10    
24.129
20  
14.686
0
VERTEX
10    
24.224
20  
14.686
0
VERTEX
10    
24.327
20  
14.686
0
VERTEX
10    
24.393
20  
14.686
0
VERTEX
10    
24.459
20  
14.686
0
VERTEX
10    
24.525
20  
14.686
0
VERTEX
10    
24.627
20  
14.686
0
VERTEX
10    
24.728
20  
14.686
0
VERTEX
10    
24.79
20  
14.686
0
VERTEX
10    
24.859
20  
14.686
0
VERTEX
10    
24.936
20  
14.686
0
VERTEX
10    
25.048
20  
14.686
0
VERTEX
10    
25.162
20  
14.686
0
VERTEX
10    
25.231
20  
14.686
0
VERTEX
10    
25.298
20  
14.682
0
VERTEX
10    
25.389
20  
14.675
0
VERTEX
10    
25.497
20  
14.676
0
VERTEX
10    
25.559
20  
14.676
0
VERTEX
10    
25.617
20  
14.676
0
VERTEX
10    
25.676
20  
14.676
0
VERTEX
10    
25.736
20  
14.676
0
VERTEX
10    
25.819
20  
14.676
0
VERTEX
10    
25.902
20  
14.676
0
VERTEX
10    
25.944
20  
14.676
0
VERTEX
10    
25.984
20  
14.676
0
VERTEX
10    
26.031
20  
14.676
0
VERTEX
10    
26.078
20  
14.676
0
VERTEX
10    
26.14
20  
14.676
0
VERTEX
10    
26.213
20  
14.676
0
VERTEX
10    
26.286
20  
14.676
0
VERTEX
10    
26.326
20  
14.676
0
VERTEX
10    
26.363
20  
14.676
0
VERTEX
10    
26.403
20  
14.676
0
VERTEX
10    
26.443
20  
14.676
0
VERTEX
10    
26.477
20  
14.676
0
VERTEX
10    
26.52
20  
14.675
0
VERTEX
10    
26.578
20  
14.673
0
VERTEX
10    
26.648
20  
14.674
0
VERTEX
10    
26.703
20  
14.674
0
VERTEX
10    
26.746
20  
14.674
0
VERTEX
10    
26.793
20  
14.674
0
VERTEX
10    
26.846
20  
14.674
0
VERTEX
10    
26.901
20  
14.674
0
VERTEX
10    
26.981
20  
14.674
0
VERTEX
10    
27.067
20  
14.674
0
VERTEX
10    
27.121
20  
14.674
0
VERTEX
10    
27.169
20  
14.674
0
VERTEX
10    
27.223
20  
14.674
0
VERTEX
10    
27.274
20  
14.674
0
VERTEX
10    
27.332
20  
14.674
0
VERTEX
10    
27.408
20  
14.674
0
VERTEX
10    
27.474
20  
14.674
0
VERTEX
10    
27.51
20  
14.674
0
VERTEX
10    
27.544
20  
14.674
0
VERTEX
10    
27.581
20  
14.674
0
VERTEX
10    
27.621
20  
14.674
0
VERTEX
10    
27.657
20  
14.674
0
VERTEX
10    
27.701
20  
14.674
0
VERTEX
10    
27.756
20  
14.672
0
VERTEX
10    
27.832
20  
14.671
0
VERTEX
10    
27.926
20  
14.671
0
VERTEX
10    
27.997
20  
14.671
0
VERTEX
10    
28.077
20  
14.671
0
VERTEX
10    
28.152
20  
14.671
0
VERTEX
10    
28.257
20  
14.671
0
VERTEX
10    
28.367
20  
14.671
0
VERTEX
10    
28.429
20  
14.671
0
VERTEX
10    
28.499
20  
14.671
0
VERTEX
10    
28.58
20  
14.671
0
VERTEX
10    
28.663
20  
14.671
0
VERTEX
10    
28.704
20  
14.671
0
VERTEX
10    
28.732
20  
14.671
0
VERTEX
10    
28.762
20  
14.671
0
VERTEX
10    
28.808
20  
14.671
0
VERTEX
10    
28.862
20  
14.671
0
VERTEX
10    
28.907
20  
14.671
0
VERTEX
10    
28.954
20  
14.671
0
VERTEX
10    
29.007
20  
14.671
0
VERTEX
10    
29.068
20  
14.671
0
VERTEX
10    
29.113
20  
14.671
0
VERTEX
10    
29.157
20  
14.671
0
VERTEX
10    
29.194
20  
14.671
0
VERTEX
10    
29.218
20  
14.669
0
VERTEX
10    
29.236
20  
14.666
0
VERTEX
10    
29.263
20  
14.667
0
VERTEX
10    
29.309
20  
14.667
0
VERTEX
10    
29.384
20  
14.667
0
VERTEX
10    
29.469
20  
14.667
0
VERTEX
10    
29.518
20  
14.667
0
VERTEX
10    
29.557
20  
14.667
0
VERTEX
10    
29.604
20  
14.667
0
VERTEX
10    
29.656
20  
14.667
0
VERTEX
10    
29.695
20  
14.665
0
VERTEX
10    
29.732
20  
14.663
0
VERTEX
10    
29.776
20  
14.663
0
VERTEX
10    
29.838
20  
14.663
0
VERTEX
10    
29.895
20  
14.663
0
VERTEX
10    
29.935
20  
14.663
0
VERTEX
10    
29.96
20  
14.663
0
VERTEX
10    
29.982
20  
14.663
0
VERTEX
10    
30.008
20  
14.663
0
VERTEX
10    
30.037
20  
14.663
0
VERTEX
10    
30.063
20  
14.663
0
VERTEX
10    
30.09
20  
14.663
0
VERTEX
10    
30.118
20  
14.663
0
VERTEX
10    
30.153
20  
14.663
0
VERTEX
10    
30.204
20  
14.663
0
VERTEX
10    
30.266
20  
14.663
0
VERTEX
10    
30.306
20  
14.663
0
VERTEX
10    
30.331
20  
14.663
0
VERTEX
10    
30.35
20  
14.663
0
VERTEX
10    
30.371
20  
14.663
0
VERTEX
10    
30.396
20  
14.663
0
VERTEX
10    
30.42
20  
14.663
0
VERTEX
10    
30.44
20  
14.663
0
VERTEX
10    
30.462
20  
14.663
0
VERTEX
10    
30.48
20  
14.663
0
VERTEX
10    
30.495
20  
14.663
0
VERTEX
10    
30.508
20  
14.664
0
VERTEX
10    
30.528
20  
14.666
0
VERTEX
10    
30.552
20  
14.666
0
VERTEX
10    
30.584
20  
14.666
0
VERTEX
10    
30.622
20  
14.666
0
VERTEX
10    
30.656
20  
14.666
0
VERTEX
10    
30.674
20  
14.666
0
VERTEX
10    
30.691
20  
14.666
0
VERTEX
10    
30.709
20  
14.666
0
VERTEX
10    
30.722
20  
14.666
0
VERTEX
10    
30.736
20  
14.666
0
VERTEX
10    
30.753
20  
14.666
0
VERTEX
10    
30.778
20  
14.666
0
VERTEX
10    
30.805
20  
14.666
0
VERTEX
10    
30.823
20  
14.666
0
VERTEX
10    
30.838
20  
14.666
0
VERTEX
10    
30.853
20  
14.666
0
VERTEX
10    
30.869
20  
14.666
0
VERTEX
10    
30.885
20  
14.666
0
VERTEX
10    
30.904
20  
14.666
0
VERTEX
10    
30.922
20  
14.666
0
VERTEX
10    
30.932
20  
14.666
0
VERTEX
10    
30.953
20  
14.677
0
VERTEX
10    
30.985
20  
14.677
0
VERTEX
10    
31.031
20  
14.677
0
VERTEX
10    
31.062
20  
14.677
0
VERTEX
10    
31.084
20  
14.677
0
VERTEX
10    
31.093
20  
14.677
0
VERTEX
10    
31.1
20  
14.68
0
VERTEX
10    
31.11
20  
14.674
0
VERTEX
10    
31.119
20  
14.674
0
VERTEX
10    
31.13
20  
14.674
0
VERTEX
10    
31.141
20  
14.674
0
VERTEX
10    
31.154
20  
14.674
0
VERTEX
10    
31.167
20  
14.674
0
VERTEX
10    
31.184
20  
14.674
0
VERTEX
10    
31.203
20  
14.674
0
VERTEX
10    
31.213
20  
14.674
0
VERTEX
10    
31.224
20  
14.674
0
VERTEX
10    
31.252
20  
14.674
0
VERTEX
10    
31.271
20  
14.669
0
VERTEX
10    
31.297
20  
14.648
0
VERTEX
10    
31.356
20  
14.597
0
VERTEX
10    
31.482
20  
14.527
0
VERTEX
10    
31.547
20  
14.474
0
VERTEX
10    
31.597
20  
14.439
0
VERTEX
10    
31.652
20  
14.389
0
VERTEX
10    
31.696
20  
14.345
0
VERTEX
10    
31.717
20  
14.311
0
VERTEX
10    
31.717
20  
14.273
0
VERTEX
10    
31.717
20  
14.227
0
VERTEX
10    
31.728
20  
14.164
0
VERTEX
10    
31.728
20  
14.114
0
VERTEX
10    
31.717
20  
14.08
0
VERTEX
10    
31.694
20  
14.057
0
VERTEX
10    
31.663
20  
14.035
0
VERTEX
10    
31.639
20  
14.013
0
VERTEX
10    
31.626
20  
13.991
0
VERTEX
10    
31.612
20  
13.968
0
VERTEX
10    
31.601
20  
13.945
0
VERTEX
10    
31.57
20  
13.902
0
VERTEX
10    
31.562
20  
13.872
0
VERTEX
10    
31.557
20  
13.837
0
VERTEX
10    
31.539
20  
13.79
0
VERTEX
10    
31.514
20  
13.717
0
VERTEX
10    
31.49
20  
13.682
0
VERTEX
10    
31.473
20  
13.658
0
VERTEX
10    
31.462
20  
13.633
0
VERTEX
10    
31.462
20  
13.604
0
VERTEX
10    
31.462
20  
13.574
0
VERTEX
10    
31.462
20  
13.539
0
VERTEX
10    
31.462
20  
13.498
0
VERTEX
10    
31.462
20  
13.451
0
VERTEX
10    
31.462
20  
13.384
0
VERTEX
10    
31.462
20  
13.332
0
VERTEX
10    
31.462
20  
13.282
0
VERTEX
10    
31.462
20  
13.243
0
VERTEX
10    
31.456
20  
13.198
0
VERTEX
10    
31.456
20  
13.157
0
VERTEX
10    
31.456
20  
13.113
0
VERTEX
10    
31.456
20  
13.052
0
VERTEX
10    
31.456
20  
12.959
0
VERTEX
10    
31.456
20  
12.893
0
VERTEX
10    
31.456
20  
12.843
0
VERTEX
10    
31.456
20  
12.785
0
VERTEX
10    
31.456
20  
12.735
0
VERTEX
10    
31.456
20  
12.663
0
VERTEX
10    
31.456
20  
12.555
0
VERTEX
10    
31.456
20  
12.476
0
VERTEX
10    
31.456
20  
12.406
0
VERTEX
10    
31.456
20  
12.337
0
VERTEX
10    
31.456
20  
12.256
0
VERTEX
10    
31.456
20  
12.13
0
VERTEX
10    
31.456
20  
12.049
0
VERTEX
10    
31.456
20  
11.959
0
VERTEX
10    
31.456
20  
11.875
0
VERTEX
10    
31.456
20  
11.762
0
VERTEX
10    
31.467
20  
11.639
0
VERTEX
10    
31.467
20  
11.548
0
VERTEX
10    
31.467
20  
11.458
0
VERTEX
10    
31.467
20  
11.35
0
VERTEX
10    
31.467
20  
11.222
0
VERTEX
10    
31.467
20  
11.126
0
VERTEX
10    
31.467
20  
11.02
0
VERTEX
10    
31.467
20  
10.892
0
VERTEX
10    
31.467
20  
10.814
0
VERTEX
10    
31.467
20  
10.724
0
VERTEX
10    
31.467
20  
10.621
0
VERTEX
10    
31.455
20  
10.494
0
VERTEX
10    
31.455
20  
10.414
0
VERTEX
10    
31.455
20  
10.326
0
VERTEX
10    
31.455
20  
10.223
0
VERTEX
10    
31.455
20  
10.094
0
VERTEX
10    
31.455
20  
10.009
0
VERTEX
10    
31.455
20  
9.917
0
VERTEX
10    
31.455
20  
9.802
0
VERTEX
10    
31.455
20  
9.678
0
VERTEX
10    
31.455
20  
9.586
0
VERTEX
10    
31.448
20  
9.497
0
VERTEX
10    
31.448
20  
9.386
0
VERTEX
10    
31.448
20  
9.257
0
VERTEX
10    
31.448
20  
9.16
0
VERTEX
10    
31.448
20  
9.07
0
VERTEX
10    
31.448
20  
8.954
0
VERTEX
10    
31.448
20  
8.826
0
VERTEX
10    
31.448
20  
8.727
0
VERTEX
10    
31.448
20  
8.593
0
VERTEX
10    
31.448
20  
8.464
0
VERTEX
10    
31.448
20  
8.354
0
VERTEX
10    
31.424
20  
8.237
0
VERTEX
10    
31.438
20  
8.088
0
VERTEX
10    
31.438
20  
7.974
0
VERTEX
10    
31.438
20  
7.846
0
VERTEX
10    
31.438
20  
7.684
0
VERTEX
10    
31.438
20  
7.559
0
VERTEX
10    
31.419
20  
7.405
0
VERTEX
10    
31.43
20  
7.258
0
VERTEX
10    
31.418
20  
7.122
0
VERTEX
10    
31.406
20  
6.966
0
VERTEX
10    
31.419
20  
6.826
0
VERTEX
10    
31.405
20  
6.7
0
VERTEX
10    
31.405
20  
6.533
0
VERTEX
10    
31.405
20  
6.416
0
VERTEX
10    
31.405
20  
6.291
0
VERTEX
10    
31.405
20  
6.119
0
VERTEX
10    
31.405
20  
5.993
0
VERTEX
10    
31.39
20  
5.809
0
VERTEX
10    
31.392
20  
5.601
0
VERTEX
10    
31.392
20  
5.482
0
VERTEX
10    
31.392
20  
5.317
0
VERTEX
10    
31.392
20  
5.207
0
VERTEX
10    
31.392
20  
5.098
0
VERTEX
10    
31.392
20  
4.943
0
VERTEX
10    
31.392
20  
4.839
0
VERTEX
10    
31.392
20  
4.736
0
VERTEX
10    
31.406
20  
4.561
0
VERTEX
10    
31.404
20  
4.413
0
VERTEX
10    
31.404
20  
4.283
0
VERTEX
10    
31.404
20  
4.181
0
VERTEX
10    
31.39
20  
4.045
0
VERTEX
10    
31.39
20  
3.966
0
VERTEX
10    
31.405
20  
3.882
0
VERTEX
10    
31.403
20  
3.813
0
VERTEX
10    
31.403
20  
3.718
0
VERTEX
10    
31.403
20  
3.685
0
VERTEX
10    
31.403
20  
3.661
0
VERTEX
10    
31.403
20  
3.641
0
VERTEX
10    
31.403
20  
3.619
0
VERTEX
10    
31.389
20  
3.6
0
VERTEX
10    
31.389
20  
3.583
0
VERTEX
10    
31.371
20  
3.571
0
VERTEX
10    
31.371
20  
3.56
0
VERTEX
10    
31.36
20  
3.56
0
VERTEX
10    
31.36
20  
3.544
0
VERTEX
10    
31.36
20  
3.53
0
VERTEX
10    
31.36
20  
3.512
0
VERTEX
10    
31.36
20  
3.489
0
VERTEX
10    
31.36
20  
3.463
0
VERTEX
10    
31.36
20  
3.436
0
VERTEX
10    
31.36
20  
3.395
0
VERTEX
10    
31.36
20  
3.359
0
VERTEX
10    
31.36
20  
3.325
0
VERTEX
10    
31.36
20  
3.299
0
VERTEX
10    
31.36
20  
3.28
0
VERTEX
10    
31.348
20  
3.257
0
VERTEX
10    
31.348
20  
3.235
0
VERTEX
10    
31.348
20  
3.2
0
VERTEX
10    
31.348
20  
3.164
0
VERTEX
10    
31.348
20  
3.135
0
VERTEX
10    
31.348
20  
3.098
0
VERTEX
10    
31.348
20  
3.053
0
VERTEX
10    
31.359
20  
2.985
0
VERTEX
10    
31.359
20  
2.928
0
VERTEX
10    
31.373
20  
2.886
0
VERTEX
10    
31.373
20  
2.849
0
VERTEX
10    
31.373
20  
2.805
0
VERTEX
10    
31.373
20  
2.762
0
VERTEX
10    
31.373
20  
2.728
0
VERTEX
10    
31.373
20  
2.686
0
VERTEX
10    
31.373
20  
2.624
0
VERTEX
10    
31.373
20  
2.552
0
VERTEX
10    
31.373
20  
2.504
0
VERTEX
10    
31.373
20  
2.465
0
VERTEX
10    
31.358
20  
2.428
0
VERTEX
10    
31.358
20  
2.381
0
VERTEX
10    
31.358
20  
2.344
0
VERTEX
10    
31.358
20  
2.308
0
VERTEX
10    
31.358
20  
2.256
0
VERTEX
10    
31.358
20  
2.185
0
VERTEX
10    
31.358
20  
2.126
0
VERTEX
10    
31.358
20  
2.079
0
VERTEX
10    
31.358
20  
2.039
0
VERTEX
10    
31.346
20  
1.992
0
VERTEX
10    
31.346
20  
1.954
0
VERTEX
10    
31.346
20  
1.916
0
VERTEX
10    
31.346
20  
1.87
0
VERTEX
10    
31.346
20  
1.811
0
VERTEX
10    
31.346
20  
1.727
0
VERTEX
10    
31.346
20  
1.677
0
VERTEX
10    
31.346
20  
1.637
0
VERTEX
10    
31.333
20  
1.589
0
VERTEX
10    
31.333
20  
1.548
0
VERTEX
10    
31.333
20  
1.506
0
VERTEX
10    
31.348
20  
1.452
0
VERTEX
10    
31.348
20  
1.374
0
VERTEX
10    
31.348
20  
1.31
0
VERTEX
10    
31.348
20  
1.268
0
VERTEX
10    
31.348
20  
1.227
0
VERTEX
10    
31.348
20  
1.183
0
VERTEX
10    
31.366
20  
1.149
0
VERTEX
10    
31.366
20  
1.113
0
VERTEX
10    
31.366
20  
1.07
0
VERTEX
10    
31.379
20  
1.015
0
VERTEX
10    
31.389
20  
0.946
0
VERTEX
10    
31.389
20  
0.906
0
VERTEX
10    
31.389
20  
0.873
0
VERTEX
10    
31.389
20  
0.847
0
VERTEX
10    
31.378
20  
0.819
0
VERTEX
10    
31.378
20  
0.793
0
VERTEX
10    
31.363
20  
0.771
0
VERTEX
10    
31.363
20  
0.752
0
VERTEX
10    
31.338
20  
0.738
0
VERTEX
10    
31.338
20  
0.723
0
VERTEX
10    
31.326
20  
0.705
0
VERTEX
10    
31.326
20  
0.687
0
VERTEX
10    
31.326
20  
0.666
0
VERTEX
10    
31.326
20  
0.645
0
VERTEX
10    
31.326
20  
0.621
0
VERTEX
10    
31.326
20  
0.593
0
VERTEX
10    
31.326
20  
0.557
0
VERTEX
10    
31.309
20  
0.528
0
VERTEX
10    
31.298
20  
0.503
0
VERTEX
10    
31.281
20  
0.482
0
VERTEX
10    
31.263
20  
0.469
0
VERTEX
10    
31.242
20  
0.469
0
VERTEX
10    
31.217
20  
0.454
0
VERTEX
10    
31.176
20  
0.454
0
VERTEX
10    
31.153
20  
0.459
0
VERTEX
10    
31.127
20  
0.467
0
VERTEX
10    
31.106
20  
0.466
0
VERTEX
10    
31.085
20  
0.466
0
VERTEX
10    
31.065
20  
0.466
0
VERTEX
10    
31.041
20  
0.466
0
VERTEX
10    
31.002
20  
0.466
0
VERTEX
10    
30.951
20  
0.466
0
VERTEX
10    
30.911
20  
0.466
0
VERTEX
10    
30.878
20  
0.466
0
VERTEX
10    
30.849
20  
0.466
0
VERTEX
10    
30.813
20  
0.466
0
VERTEX
10    
30.772
20  
0.466
0
VERTEX
10    
30.733
20  
0.47
0
VERTEX
10    
30.686
20  
0.477
0
VERTEX
10    
30.622
20  
0.476
0
VERTEX
10    
30.546
20  
0.476
0
VERTEX
10    
30.486
20  
0.476
0
VERTEX
10    
30.445
20  
0.476
0
VERTEX
10    
30.4
20  
0.476
0
VERTEX
10    
30.348
20  
0.476
0
VERTEX
10    
30.294
20  
0.476
0
VERTEX
10    
30.212
20  
0.476
0
VERTEX
10    
30.115
20  
0.476
0
VERTEX
10    
30.037
20  
0.476
0
VERTEX
10    
29.976
20  
0.476
0
VERTEX
10    
29.904
20  
0.476
0
VERTEX
10    
29.811
20  
0.476
0
VERTEX
10    
29.692
20  
0.476
0
VERTEX
10    
29.59
20  
0.476
0
VERTEX
10    
29.498
20  
0.48
0
VERTEX
10    
29.388
20  
0.489
0
VERTEX
10    
29.261
20  
0.487
0
VERTEX
10    
29.162
20  
0.487
0
VERTEX
10    
29.054
20  
0.487
0
VERTEX
10    
28.913
20  
0.487
0
VERTEX
10    
28.8
20  
0.487
0
VERTEX
10    
28.697
20  
0.487
0
VERTEX
10    
28.585
20  
0.487
0
VERTEX
10    
28.452
20  
0.487
0
VERTEX
10    
28.321
20  
0.492
0
VERTEX
10    
28.191
20  
0.5
0
VERTEX
10    
28.037
20  
0.499
0
VERTEX
10    
27.899
20  
0.499
0
VERTEX
10    
27.754
20  
0.499
0
VERTEX
10    
27.597
20  
0.499
0
VERTEX
10    
27.462
20  
0.499
0
VERTEX
10    
27.294
20  
0.499
0
VERTEX
10    
27.16
20  
0.503
0
VERTEX
10    
27.028
20  
0.511
0
VERTEX
10    
26.867
20  
0.509
0
VERTEX
10    
26.742
20  
0.509
0
VERTEX
10    
26.588
20  
0.509
0
VERTEX
10    
26.411
20  
0.509
0
VERTEX
10    
26.269
20  
0.509
0
VERTEX
10    
26.086
20  
0.509
0
VERTEX
10    
25.953
20  
0.509
0
VERTEX
10    
25.804
20  
0.509
0
VERTEX
10    
25.631
20  
0.509
0
VERTEX
10    
25.508
20  
0.509
0
VERTEX
10    
25.352
20  
0.509
0
VERTEX
10    
25.189
20  
0.509
0
VERTEX
10    
25.064
20  
0.509
0
VERTEX
10    
24.905
20  
0.513
0
VERTEX
10    
24.782
20  
0.519
0
VERTEX
10    
24.648
20  
0.518
0
VERTEX
10    
24.485
20  
0.518
0
VERTEX
10    
24.356
20  
0.518
0
VERTEX
10    
24.196
20  
0.518
0
VERTEX
10    
24.009
20  
0.518
0
VERTEX
10    
23.852
20  
0.518
0
VERTEX
10    
23.65
20  
0.518
0
VERTEX
10    
23.475
20  
0.518
0
VERTEX
10    
23.269
20  
0.518
0
VERTEX
10    
23.067
20  
0.513
0
VERTEX
10    
22.854
20  
0.502
0
VERTEX
10    
22.654
20  
0.504
0
VERTEX
10    
22.443
20  
0.504
0
VERTEX
10    
22.247
20  
0.504
0
VERTEX
10    
22.036
20  
0.504
0
VERTEX
10    
21.849
20  
0.508
0
VERTEX
10    
21.627
20  
0.517
0
VERTEX
10    
21.444
20  
0.515
0
VERTEX
10    
21.226
20  
0.522
0
VERTEX
10    
21.038
20  
0.534
0
VERTEX
10    
20.821
20  
0.532
0
VERTEX
10    
20.641
20  
0.532
0
VERTEX
10    
20.431
20  
0.538
0
VERTEX
10    
20.251
20  
0.549
0
VERTEX
10    
20.051
20  
0.547
0
VERTEX
10    
19.877
20  
0.547
0
VERTEX
10    
19.681
20  
0.553
0
VERTEX
10    
19.513
20  
0.563
0
VERTEX
10    
19.341
20  
0.566
0
VERTEX
10    
19.169
20  
0.584
0
VERTEX
10    
19.017
20  
0.595
0
VERTEX
10    
18.841
20  
0.577
0
VERTEX
10    
18.73
20  
0.579
0
VERTEX
10    
18.6
20  
0.579
0
VERTEX
10    
18.446
20  
0.579
0
VERTEX
10    
18.311
20  
0.579
0
VERTEX
10    
18.196
20  
0.579
0
VERTEX
10    
18.049
20  
0.575
0
VERTEX
10    
17.904
20  
0.557
0
VERTEX
10    
17.76
20  
0.533
0
VERTEX
10    
17.599
20  
0.519
0
VERTEX
10    
17.465
20  
0.509
0
VERTEX
10    
17.301
20  
0.498
0
VERTEX
10    
17.175
20  
0.491
0
VERTEX
10    
17.048
20  
0.493
0
VERTEX
10    
16.888
20  
0.493
0
VERTEX
10    
16.774
20  
0.493
0
VERTEX
10    
16.668
20  
0.493
0
VERTEX
10    
16.528
20  
0.493
0
VERTEX
10    
16.401
20  
0.498
0
VERTEX
10    
16.313
20  
0.514
0
VERTEX
10    
16.219
20  
0.522
0
VERTEX
10    
16.095
20  
0.529
0
VERTEX
10    
15.987
20  
0.557
0
VERTEX
10    
15.908
20  
0.573
0
VERTEX
10    
15.802
20  
0.57
0
VERTEX
10    
15.673
20  
0.576
0
VERTEX
10    
15.6
20  
0.588
0
VERTEX
10    
15.523
20  
0.591
0
VERTEX
10    
15.45
20  
0.601
0
VERTEX
10    
15.339
20  
0.599
0
VERTEX
10    
15.211
20  
0.599
0
VERTEX
10    
15.125
20  
0.599
0
VERTEX
10    
15.075
20  
0.599
0
VERTEX
10    
14.99
20  
0.599
0
VERTEX
10    
14.903
20  
0.599
0
VERTEX
10    
14.857
20  
0.603
0
VERTEX
10    
14.825
20  
0.612
0
VERTEX
10    
14.79
20  
0.611
0
VERTEX
10    
14.754
20  
0.611
0
VERTEX
10    
14.721
20  
0.606
0
VERTEX
10    
14.652
20  
0.599
0
VERTEX
10    
14.543
20  
0.599
0
VERTEX
10    
14.49
20  
0.599
0
VERTEX
10    
14.433
20  
0.599
0
VERTEX
10    
14.371
20  
0.594
0
VERTEX
10    
14.309
20  
0.584
0
VERTEX
10    
14.238
20  
0.585
0
VERTEX
10    
14.139
20  
0.585
0
VERTEX
10    
14.043
20  
0.585
0
VERTEX
10    
13.982
20  
0.59
0
VERTEX
10    
13.912
20  
0.598
0
VERTEX
10    
13.839
20  
0.601
0
VERTEX
10    
13.681
20  
0.621
0
VERTEX
10    
13.628
20  
0.621
0
VERTEX
10    
13.549
20  
0.621
0
VERTEX
10    
13.5
20  
0.621
0
VERTEX
10    
13.438
20  
0.621
0
VERTEX
10    
13.358
20  
0.621
0
VERTEX
10    
13.281
20  
0.621
0
VERTEX
10    
13.245
20  
0.629
0
VERTEX
10    
13.208
20  
0.648
0
VERTEX
10    
13.176
20  
0.664
0
VERTEX
10    
13.158
20  
0.689
0
VERTEX
10    
13.146
20  
0.713
0
VERTEX
10    
13.139
20  
0.737
0
VERTEX
10    
13.14
20  
0.761
0
VERTEX
10    
13.14
20  
0.785
0
VERTEX
10    
13.14
20  
0.807
0
VERTEX
10    
13.14
20  
0.834
0
VERTEX
10    
13.14
20  
0.856
0
VERTEX
10    
13.14
20  
0.884
0
VERTEX
10    
13.14
20  
0.914
0
VERTEX
10    
13.152
20  
0.95
0
VERTEX
10    
13.152
20  
0.995
0
VERTEX
10    
13.152
20  
1.041
0
VERTEX
10    
13.152
20  
1.083
0
VERTEX
10    
13.152
20  
1.114
0
VERTEX
10    
13.152
20  
1.139
0
VERTEX
10    
13.152
20  
1.165
0
VERTEX
10    
13.165
20  
1.192
0
VERTEX
10    
13.165
20  
1.218
0
VERTEX
10    
13.165
20  
1.244
0
VERTEX
10    
13.165
20  
1.276
0
VERTEX
10    
13.165
20  
1.317
0
VERTEX
10    
13.165
20  
1.375
0
VERTEX
10    
13.165
20  
1.453
0
VERTEX
10    
13.165
20  
1.514
0
VERTEX
10    
13.165
20  
1.562
0
VERTEX
10    
13.165
20  
1.61
0
VERTEX
10    
13.165
20  
1.65
0
VERTEX
10    
13.165
20  
1.706
0
VERTEX
10    
13.165
20  
1.802
0
VERTEX
10    
13.165
20  
1.896
0
VERTEX
10    
13.165
20  
1.958
0
VERTEX
10    
13.176
20  
2.022
0
VERTEX
10    
13.176
20  
2.081
0
VERTEX
10    
13.176
20  
2.171
0
VERTEX
10    
13.176
20  
2.275
0
VERTEX
10    
13.176
20  
2.349
0
VERTEX
10    
13.176
20  
2.409
0
VERTEX
10    
13.176
20  
2.461
0
VERTEX
10    
13.176
20  
2.535
0
VERTEX
10    
13.176
20  
2.648
0
VERTEX
10    
13.176
20  
2.724
0
VERTEX
10    
13.176
20  
2.771
0
VERTEX
10    
13.176
20  
2.817
0
VERTEX
10    
13.176
20  
2.858
0
VERTEX
10    
13.176
20  
2.913
0
VERTEX
10    
13.176
20  
2.994
0
VERTEX
10    
13.176
20  
3.069
0
VERTEX
10    
13.176
20  
3.116
0
VERTEX
10    
13.176
20  
3.149
0
VERTEX
10    
13.176
20  
3.178
0
VERTEX
10    
13.176
20  
3.213
0
VERTEX
10    
13.176
20  
3.238
0
VERTEX
10    
13.181
20  
3.263
0
VERTEX
10    
13.181
20  
3.288
0
VERTEX
10    
13.181
20  
3.32
0
VERTEX
10    
13.181
20  
3.358
0
VERTEX
10    
13.181
20  
3.403
0
VERTEX
10    
13.181
20  
3.447
0
VERTEX
10    
13.181
20  
3.489
0
VERTEX
10    
13.181
20  
3.525
0
VERTEX
10    
13.181
20  
3.558
0
VERTEX
10    
13.181
20  
3.588
0
VERTEX
10    
13.181
20  
3.62
0
VERTEX
10    
13.181
20  
3.654
0
VERTEX
10    
13.181
20  
3.699
0
VERTEX
10    
13.181
20  
3.77
0
VERTEX
10    
13.181
20  
3.858
0
VERTEX
10    
13.181
20  
3.916
0
VERTEX
10    
13.181
20  
3.962
0
VERTEX
10    
13.181
20  
4.011
0
VERTEX
10    
13.186
20  
4.06
0
VERTEX
10    
13.186
20  
4.129
0
VERTEX
10    
13.186
20  
4.24
0
VERTEX
10    
13.186
20  
4.325
0
VERTEX
10    
13.186
20  
4.387
0
VERTEX
10    
13.186
20  
4.449
0
VERTEX
10    
13.186
20  
4.525
0
VERTEX
10    
13.186
20  
4.662
0
VERTEX
10    
13.186
20  
4.751
0
VERTEX
10    
13.186
20  
4.825
0
VERTEX
10    
13.186
20  
4.899
0
VERTEX
10    
13.186
20  
5.035
0
VERTEX
10    
13.186
20  
5.139
0
VERTEX
10    
13.186
20  
5.218
0
VERTEX
10    
13.191
20  
5.294
0
VERTEX
10    
13.191
20  
5.445
0
VERTEX
10    
13.191
20  
5.552
0
VERTEX
10    
13.191
20  
5.636
0
VERTEX
10    
13.191
20  
5.729
0
VERTEX
10    
13.191
20  
5.884
0
VERTEX
10    
13.191
20  
5.977
0
VERTEX
10    
13.191
20  
6.062
0
VERTEX
10    
13.202
20  
6.173
0
VERTEX
10    
13.202
20  
6.31
0
VERTEX
10    
13.202
20  
6.396
0
VERTEX
10    
13.202
20  
6.472
0
VERTEX
10    
13.202
20  
6.581
0
VERTEX
10    
13.202
20  
6.703
0
VERTEX
10    
13.202
20  
6.787
0
VERTEX
10    
13.202
20  
6.856
0
VERTEX
10    
13.212
20  
6.944
0
VERTEX
10    
13.212
20  
7.083
0
VERTEX
10    
13.212
20  
7.165
0
VERTEX
10    
13.212
20  
7.233
0
VERTEX
10    
13.212
20  
7.305
0
VERTEX
10    
13.212
20  
7.439
0
VERTEX
10    
13.212
20  
7.538
0
VERTEX
10    
13.212
20  
7.618
0
VERTEX
10    
13.212
20  
7.689
0
VERTEX
10    
13.212
20  
7.841
0
VERTEX
10    
13.212
20  
7.951
0
VERTEX
10    
13.212
20  
8.031
0
VERTEX
10    
13.212
20  
8.115
0
VERTEX
10    
13.212
20  
8.269
0
VERTEX
10    
13.221
20  
8.365
0
VERTEX
10    
13.221
20  
8.446
0
VERTEX
10    
13.221
20  
8.533
0
VERTEX
10    
13.221
20  
8.678
0
VERTEX
10    
13.221
20  
8.77
0
VERTEX
10    
13.221
20  
8.85
0
VERTEX
10    
13.221
20  
8.95
0
VERTEX
10    
13.221
20  
9.085
0
VERTEX
10    
13.221
20  
9.184
0
VERTEX
10    
13.221
20  
9.268
0
VERTEX
10    
13.221
20  
9.395
0
VERTEX
10    
13.221
20  
9.52
0
VERTEX
10    
13.221
20  
9.62
0
VERTEX
10    
13.221
20  
9.723
0
VERTEX
10    
13.233
20  
9.881
0
VERTEX
10    
13.233
20  
9.993
0
VERTEX
10    
13.233
20  
10.092
0
VERTEX
10    
13.233
20  
10.246
0
VERTEX
10    
13.233
20  
10.366
0
VERTEX
10    
13.233
20  
10.458
0
VERTEX
10    
13.233
20  
10.588
0
VERTEX
10    
13.233
20  
10.715
0
VERTEX
10    
13.233
20  
10.825
0
VERTEX
10    
13.233
20  
10.927
0
VERTEX
10    
13.233
20  
11.08
0
VERTEX
10    
13.233
20  
11.186
0
VERTEX
10    
13.233
20  
11.272
0
VERTEX
10    
13.233
20  
11.385
0
VERTEX
10    
13.233
20  
11.505
0
VERTEX
10    
13.233
20  
11.6
0
VERTEX
10    
13.236
20  
11.677
0
VERTEX
10    
13.236
20  
11.768
0
VERTEX
10    
13.236
20  
11.881
0
VERTEX
10    
13.236
20  
11.967
0
VERTEX
10    
13.236
20  
12.032
0
VERTEX
10    
13.236
20  
12.087
0
VERTEX
10    
13.236
20  
12.175
0
VERTEX
10    
13.236
20  
12.266
0
VERTEX
10    
13.236
20  
12.343
0
VERTEX
10    
13.236
20  
12.395
0
VERTEX
10    
13.238
20  
12.444
0
VERTEX
10    
13.238
20  
12.491
0
VERTEX
10    
13.238
20  
12.569
0
VERTEX
10    
13.238
20  
12.659
0
VERTEX
10    
13.238
20  
12.731
0
VERTEX
10    
13.238
20  
12.776
0
VERTEX
10    
13.238
20  
12.826
0
VERTEX
10    
13.238
20  
12.873
0
VERTEX
10    
13.238
20  
12.943
0
VERTEX
10    
13.248
20  
13.047
0
VERTEX
10    
13.248
20  
13.124
0
VERTEX
10    
13.248
20  
13.173
0
VERTEX
10    
13.237
20  
13.227
0
VERTEX
10    
13.237
20  
13.273
0
VERTEX
10    
13.237
20  
13.339
0
VERTEX
10    
13.237
20  
13.432
0
VERTEX
10    
13.237
20  
13.505
0
VERTEX
10    
13.237
20  
13.558
0
VERTEX
10    
13.237
20  
13.607
0
VERTEX
10    
13.237
20  
13.646
0
VERTEX
10    
13.237
20  
13.694
0
VERTEX
10    
13.237
20  
13.757
0
VERTEX
10    
13.237
20  
13.84
0
VERTEX
10    
13.237
20  
13.899
0
VERTEX
10    
13.237
20  
13.938
0
VERTEX
10    
13.237
20  
13.972
0
VERTEX
10    
13.237
20  
14.004
0
VERTEX
10    
13.237
20  
14.032
0
VERTEX
10    
13.237
20  
14.059
0
VERTEX
10    
13.237
20  
14.088
0
VERTEX
10    
13.237
20  
14.117
0
VERTEX
10    
13.237
20  
14.146
0
VERTEX
10    
13.237
20  
14.182
0
VERTEX
10    
13.237
20  
14.224
0
VERTEX
10    
13.237
20  
14.254
0
VERTEX
10    
13.237
20  
14.269
0
VERTEX
10    
13.237
20  
14.281
0
VERTEX
10    
13.242
20  
14.294
0
VERTEX
10    
13.242
20  
14.305
0
VERTEX
10    
13.242
20  
14.305
0
VERTEX
10    
13.23
20  
14.305
0
VERTEX
10    
13.195
20  
14.305
0
VERTEX
10    
13.163
20  
14.293
0
VERTEX
10    
13.086
20  
14.238
0
VERTEX
10    
12.953
20  
14.16
0
VERTEX
10    
12.887
20  
14.111
0
VERTEX
10    
12.842
20  
14.068
0
VERTEX
10    
12.821
20  
14.024
0
VERTEX
10    
12.815
20  
13.985
0
VERTEX
10    
12.817
20  
13.918
0
VERTEX
10    
12.803
20  
13.863
0
VERTEX
10    
12.803
20  
13.805
0
VERTEX
10    
12.803
20  
13.751
0
VERTEX
10    
12.825
20  
13.691
0
VERTEX
10    
12.825
20  
13.638
0
VERTEX
10    
12.825
20  
13.564
0
VERTEX
10    
11.695
20  
9.21
0
VERTEX
10    
11.655
20  
9.15
0
VERTEX
10    
11.632
20  
9.099
0
VERTEX
10    
11.606
20  
9.054
0
VERTEX
10    
11.601
20  
9.002
0
VERTEX
10    
11.581
20  
8.951
0     
SEQEND
0 
ENDSEC
0  
EOF   
